Oops, an error
Loading. Please wait.

Theres No Such Thing As A Jaggy Snake bass

version 2
version 2

Whole song

Interactive

2,665 views 1 this week
1 commentread comment
1 2 3 4 5
2 more votes to show rating
add to favorites
×
Save as Personal and add changes to this tab that will be seen only by you. Learn more ›
×
You can save this tab as Personal to edit and correct it or add notes. All changes will be seen only by you. Learn more »
launch autoscroll
font size
0
reset
guitar tuner
edit
Autoscroll
slow
fast
+/-
esc
set tempo
stop
TABBED BY Simon Kellaway

Intro
G|-------------------------------------|
D|-------------------------------------|
A|-------------------------------------|
D|-10-10-10*--12-12-12*--10-10-10*-----|
tens and twelves

Part 1
G|------------------------------------------|
D|------------------------------------------|
A|-----4----3----4--//5-5*------------------|
D|-0-0---3----3-----------------------------| x2

Part 2
G|-----|------------------------------------------------------|
D|-----|------------------------------------------------------|
A|-3-3-|--5-4-3---------------------3-33-3333--44444444-55-5--|
D|-----|--------3-33---0-2-3-4-4------------------------------| x2
        repeat to here when you play it through the sedcond time do not  play the 
also do not play the fives at the end but go straight back to part 1

Alternate ending
G|-----------------------------------------------------------|
D|-----------------------------------------------------------|
A|--5-4-3-------------------3-33-333-3333333-----------------|
D|--------3-33---0-2-3-4-4-------------------5-55-5555555555-|

Middle bit
G|----------------------------------|
D|----------------------------------|
A|----------------------------------|
D|-10-10-10*--12-12-12*-------------| x2

Verse
G|---------------------------------------------------------------------|
D|---------------------------------------------------------------------|
A|---------------------------------------------------------------------|
D|-10-10-10*---12-12-12-12-12-12-12-12---5-5-5-5-5-5-5-5-5-5-5-5-5-5-5-|

G|-------------------------------------------------------------------|
D|-------------------------------------------------------------------|
A|-5-5-5-5-5-5-5-5-5-5-5-5-5-5-5-5-----------------------------------|
D|----------------------------------5-5-5-5-5-5-5-5-5-5-5-5-5-5-5-5--|

5/4 time bit

G|-----------|-----------|
D|-----------|-----------|
A|-----------|-----------|
D|-5-5-5-5-5-|-5-5-5-5-5-| x2

5/4 bit part 2
G|----------------|
D|----------------|
A|-8p7---8p7------|
D|-----0-----0----| x2

Chorus
G|-------------------------------------------|
D|-------------------------------------------|
A|---------------------88888888--------------|
D|-55555555-55555555-------------88888888----| x2

Bridge 1
G|----------------|----------------|
D|----------------|----------------|
A|-----77----7h8--|-----77----7h8--| x2
D|-0-0----00------|-0-0----00------|

Bridge 2
G|--------------------------------|
D|--------------------------------|
A|------5------5------5------5----|
D|-0-00---0-00---0-00---0-00------| x2

Bridge 3
G|--------------------------------|
D|--------------------------------|
A|------5*-----5*-----5*------5*--|
D|-0-0-----0-0----000----0-00-----|


G|------------------------------------------|
D|------------------------------------------|
A|------------------------------------------|
D|--0*-0-00---12121212--55555555-00000000---| x4

G|---|-----|-------|--------|---------|--------|----------|------------|
D|---|-----|-------|--------|---------|--------|----------|------------|
A|---|-----|-----7-|-----77-|-----77--|----77--|----77--7-|----77----8-|
D|-0-|-0-0-|-0-0---|-0-0----|-0-0---0-|-0-0--0-|-0-0--00--|-0-0---00---|

work out how many times you play each part
its fairly straight forward
when the chorus is played for the second part you play it twice

Mon The Biff

            
            
Suggest correction
Creating personal tab
Creating personal tab
You can edit any tab online and save it as your Personal.

You can edit, replace or remove any tab part or add personal notes – all changes will be seen only by you.

Personal tabs can be accessed anytime from any device, even offline.
Learn more »
Give kudos to tab author, rate the tab!
1 2 3 4 5
comments
print report bad tab
1 comment total.
+1 reply
theTABASCUShero 37 May 25, 2010 08:26 AM

please put it so the tab is in order!

guest
Wanna post a correction for this tab? Suggest correction