Oops, an error
Loading. Please wait.

Thundermonster Bass Tab

365 views 1 this week
no commentswrite comment
1 2 3 4 5
please rate
add to favorites
launch autoscroll
font size
0
reset
guitar tuner
Tab Pro tools
  • play this tab
  • loop segment
  • change instrument
  • show fretboard
  • metronome
×
Best way to learn
"Thundermonster"
Autoscroll
slow
fast
+/-
esc
set tempo
stop
Contributor
Difficulty
Tuning
novice
C# G# C# F# A# D#
Verse 1

F# [----------------]
C# [----------------]
G# [----9-----------]       
C# [----------------]

(Play the following verse part 2x, first part is played 3x not 2 for second run)
F# [----------------]      [----------------]
C# [----------------]      [----------------]      
G# [----9-----------] 2x   [----------------]       
C# [0-0-------------]      [99999990--------]

Pre-Chorus

F# [----------------]      [----------------]
C# [----------------]      [----------------]
G# [------9---------] 3x   [----------------]  
C# [0---00----------]      [----------------]

Chorus

F# [----------------] [----------------] [----------------]
C# [----------------] [----------------] [----------------]
G# [----------------] [----------------] [----------------]    
C# [0-000004-4444444] [0-000007-7777777] [0-000004-4444444]

F# [----------------]
C# [----------------]
G# [----------------]       
C# [99999990-0000000]

Verse 2 (11's not 1's) (2x)

F# [------------------] [-----------------]
C# [------------11119-] [------------911--]
G# [----9---9999-----0] [----9---9999---00]     
C# [0-0---------------] [0-0--------------]

F# [------------------] [----------------]
C# [------------11119-] [----------------]
G# [----9---9999-----0] [----------------]    
C# [0-0---------------] [99999990-0000000]

Pre-Chorus

F# [----------------]      [----------------]
C# [----------------]      [----------------]
G# [------9---------] 3x   [------9-------9-]  
C# [0---00----------]      [0---00--0---00--]

Chorus 2x

Break

F# [--------------------------] [----------------]
C# [------9/11-------11/12----] [----------------]
G# [9-9--------9-9------------] [9-9-----9-9-----]  
C# [--------------------------] [----------------]

F# [--------------------------] [----------------]
C# [------9/11-------11/12----] [----------------]
G# [9-9--------9-9------------] [9-9-------------]  
C# [--------------------------] [--------99999990]

Chorus (1x)

F# [----------------] [----------------] [----------------]
C# [----------------] [----------------] [----------------]
G# [----------------] [----------------] [----------------]    
C# [0-000004-4444444] [0-000007-7777777] [0-000004-4444444]

F# [----------------]
C# [----------------]
G# [----------------]       
C# [99999990--------]
comments
We did not receive enough feedback on this tab! Please rate:
print report bad tab
1 2 3 4 5
I want to post or [tab]
guest
You may want to rate the tab now too:
select rating
Please do not post tabs as comments. Select "correction" instead!