Oops, an error
Loading. Please wait.

Trumpet Or Tap Tab

version 2
version 2

Whole song

Interactive

845 views 1 this week
no commentswrite comment
1 2 3 4 5
please rate
add to favorites
launch autoscroll
font size
0
reset
how to read this tab
guitar tuner
Tab Pro tools
  • play this tab
  • loop segment
  • change instrument
  • show fretboard
  • metronome
×
Best way to learn
"Trumpet Or Tap"
Autoscroll
slow
fast
+/-
esc
set tempo
stop
Contributor
Difficulty
Tuning
intermediate
C# G# C# F# A# D#
Trumpet or Tap - Biffy Clyro

This is pretty much the same as any other tab, just how I play it, so it has some 
subtle differences.


Intro

6/8

D#|---------8-p-0---/12------|------------0-----------|
A#|o-8/10-----------/14b16---|--------9--------------o|
F#|--------------------------|-8/10-----------7v------|
C#|--------------------------|------------------------|
G#|o-------------------------|-----------------------o|
C#|--------------------------|------------------------|

D#|--------8-p-0---/12-12-12-|-------------0----------|
A#|-8/10-----------/14b16-16-|--------10--------------|
F#|--------------------------|-9/11------------7-b-9--|
C#|--------------------------|------------------------|
G#|--------------------------|------------------------|
C#|--------------------------|------------------------|

3/8

D#|---------8p0--|---------0--|
A#|-----10------o|-----10-----|
F#|-10-----------|-10---------|
C#|--------------|------------|
G#|-------------o|------------|
C#|--------------|------------|


Break

D#|--------7-|----------8p0--|---------0--|
A#|o----8----|o-----10------o|-----10----o|
F#|--9-------|--10-----------|-10---------|
C#|----------|---------------|------------|
G#|o---------|o-------------o|-----------o|
C#|----------|---------------|------------|


Verse 6/8

D#|-----------|-----------------------|
A#|-----------|-----------------------|
F#|------9----|-7/9-9/10-10/12-10-9-7-|
C#|-7----7----|-----------------------|
G#|-7---------|-----------------------|
C#|-7---------|-----------------------|

D#|-----------|-------------------------|
A#|-----------|-----------5-----------5-|
F#|------9----|-----4-5-7-------4-5-7---|
C#|------7----|-5-7---------5-7---------|
G#|-----------|-------------------------|
C#|-3v--------|-------------------------|
             pm |---------------------|

D#|-----------|--------------|
A#|-----------|-13-12-10-7b8-|
F#|------9----|----------7b8-|
C#|------7----|--------------|
G#|-----------|--------------|
C#|-7v--------|--------------|

D#|-----------|-------------------------|
A#|-----------|-----------5-----------5-|
F#|------9----|-----4-5-7-------4-5-7---|
C#|------7----|-5-7---------5-7---------|
G#|-----------|-------------------------|
C#|-3v--------|-------------------------|
             pm |---------------------|

D#|-----------|--------------|
A#|-----------|-13-12-10-7b8-|
F#|------9----|----------7b8-|
C#|------7----|--------------|
G#|-----------|--------------|
C#|-7v--------|--------------|

D#|-----------|--------------|
A#|-----------|-13-12-10-7b8-|
F#|------6----|----------7b8-|
C#|------4----|--------------|
G#|-----------|--------------|
C#|-4v--------|--------------|

D#|-----------|-------------------------|
A#|-----------|-----------5-----------5-|
F#|------9----|-----4-5-7-------4-5-7---|
C#|------7----|-5-7---------5-7---------|
G#|-----------|-------------------------|
C#|-3v--------|-------------------------|
             pm |---------------------|


Break 3/8

D#|--------7-|----------8p0--|---------0--|
A#|o----8----|o-----10------o|-----10----o|
F#|--9-------|--10-----------|-10---------|
C#|----------|---------------|------------|
G#|o---------|o-------------o|-----------o|
C#|----------|---------------|------------|


Chorus 6/8

D#|-------------|----------------|
A#|-------------|----------------|
F#|-------------|----------------|
C#|-7-7-7-7-7-7-|-10-10-10-3-3-3-|
G#|-7-7-7-7-7-7-|-10-10-10-3-3-3-|
C#|-7-7-7-7-7-7-|-10-10-10-3-3-3-|

                      12/8
D#|----------------|-------------------------|
A#|----------------|-------------------------|
F#|----------------|-------------7-7-7-7-7-7-|
C#|-10-10-10-3-3-3-|-2-2-2-5-5-5-5-5-5-5-5-5-|
G#|-10-10-10-3-3-3-|-2-2-2-5-5-5-5-5-5-5-5-5-|
C#|-10-10-10-3-3-3-|-2-2-2-5-5-5-5-5-5-5-5-5-|

     6/8
D#|-------------------|----------------|
A#|-------------------|----------------|
F#|-------------------|----------------|
C#|-10-10-10-10-10-10-|-3-3-3-10-10-10-|
G#|-10-10-10-10-10-10-|-3-3-3-10-10-10-|
C#|-10-10-10-10-10-10-|-3-3-3-10-10-10-|

D#|----------------|-------------|
A#|----------------|-------------|
F#|----------------|-------------|
C#|-3-3-3-10-10-10-|-2-2-2-5-5-5-|
G#|-3-3-3-10-10-10-|-2-2-2-5-5-5-|
C#|-3-3-3-10-10-10-|-2-2-2-5-5-5-|

D#|-------------|
A#|-------------|
F#|-------------|
C#|-5-5-5-5-5-5-|
G#|-5-5-5-5-5-5-|
C#|-5-5-5-5-5-5-|


Verse 2

D#|-----------|-----------------------|
A#|-----------|-----------------------|
F#|------9----|-7/9-9/10-10/12-10-9-7-|
C#|-7----7----|-----------------------|
G#|-7---------|-----------------------|
C#|-7---------|-----------------------|

D#|-----------|-------------------------|
A#|-----------|-----------5-----------5-|
F#|------9----|-----4-5-7-------4-5-7---|
C#|------7----|-5-7---------5-7---------|
G#|-----------|-------------------------|
C#|-3v--------|-------------------------|
             pm |---------------------|

D#|-----------|--------------|
A#|-----------|-13-12-10-7b8-|
F#|------9----|----------7b8-|
C#|------7----|--------------|
G#|-----------|--------------|
C#|-7v--------|--------------|

D#|-----------|-------------------------|
A#|-----------|-----------5-----------5-|
F#|------9----|-----4-5-7-------4-5-7---|
C#|------7----|-5-7---------5-7---------|
G#|-----------|-------------------------|
C#|-3v--------|-------------------------|
             pm |---------------------|

D#|-----------|--------------|
A#|-----------|-13-12-10-7b8-|
F#|------9----|----------7b8-|
C#|------7----|--------------|
G#|-----------|--------------|
C#|-7v--------|--------------|

D#|-----------|--------------|
A#|-----------|-13-12-10-7b8-|
F#|------6----|----------7b8-|
C#|------4----|--------------|
G#|-----------|--------------|
C#|-4v--------|--------------|

D#|------------|-------|
A#|------------|-------|
F#|------9--9-9|-9-9-9-|   Strange rhythm 
C#|------7--7-7|-7-7-7-|
G#|------------|-------|
C#|-3v---------|-------|


Break 3/8

D#|--------7-|----------8p0--|---------0--|
A#|o----8----|o-----10------o|-----10----o|
F#|--9-------|--10-----------|-10---------|
C#|----------|---------------|------------|
G#|o---------|o-------------o|-----------o|
C#|----------|---------------|------------|


Chorus 6/8

D#|-------------|----------------|
A#|-------------|----------------|
F#|-------------|----------------|
C#|-7-7-7-7-7-7-|-10-10-10-3-3-3-|
G#|-7-7-7-7-7-7-|-10-10-10-3-3-3-|
C#|-7-7-7-7-7-7-|-10-10-10-3-3-3-|

                      12/8
D#|----------------|-------------------------|
A#|----------------|-------------------------|
F#|----------------|-------------7-7-7-7-7-7-|
C#|-10-10-10-3-3-3-|-2-2-2-5-5-5-5-5-5-5-5-5-|
G#|-10-10-10-3-3-3-|-2-2-2-5-5-5-5-5-5-5-5-5-|
C#|-10-10-10-3-3-3-|-2-2-2-5-5-5-5-5-5-5-5-5-|

     6/8
D#|-------------------|----------------|
A#|-------------------|----------------|
F#|-------------------|----------------|
C#|-10-10-10-10-10-10-|-3-3-3-10-10-10-|
G#|-10-10-10-10-10-10-|-3-3-3-10-10-10-|
C#|-10-10-10-10-10-10-|-3-3-3-10-10-10-|

D#|----------------|-------------|
A#|----------------|-------------|
F#|----------------|-------------|
C#|-3-3-3-10-10-10-|-2-2-2-5-5-5-|
G#|-3-3-3-10-10-10-|-2-2-2-5-5-5-|
C#|-3-3-3-10-10-10-|-2-2-2-5-5-5-|

D#|-------------|
A#|-------------|
F#|-------------|
C#|-5-5-5-5-5-5-|
G#|-5-5-5-5-5-5-|
C#|-5-5-5-5-5-5-|


Middle Section

D#|------------------|-------------------|
A#|o-----------------|-------------------|
F#|------------------|-------------------|
C#|--0-15-0-15-------|-0-15---0-15-14-12-|
G#|--0-15-0-15-------|-0-15---0-15-14-12-|
C#|o-0-15-0-15-------|-0-15---0-15-14-12-|

D#|-------------|-------------|
A#|-------------|-------------|
F#|-------------|-------------|
C#|-7-7-7-7-7-7-|-7-7-7-7-7-7-|
G#|-7-7-7-7-7-7-|-7-7-7-7-7-7-|
C#|-7-7-7-7-7-7-|-7-7-7-7-7-7-|

D#|-------------------|-------------------|
A#|-------------------|-------------------|
F#|-------------------|-------------------|
C#|-10-10-10-10-10-10-|-10-10-10-10-10-10-|
G#|-10-10-10-10-10-10-|-10-10-10-10-10-10-|
C#|-10-10-10-10-10-10-|-10-10-10-10-10-10-|

D#|-------------|--------------|
A#|-------------|-------------o|
F#|-------------|--------------|
C#|-5-5-5-5-5-5-|-5-5-5-5-5-5--|
G#|-5-5-5-5-5-5-|-5-5-5-5-5-5-o|
C#|-5-5-5-5-5-5-|-5-5-5-5-5-5--|


Outro

D#|------------------|--------------------|
A#|o-----------------|-------------------o|
F#|------------------|--------------------|
C#|--0-15-0-15-------|-0-15---0-15-14-12--|
G#|--0-15-0-15-------|-0-15---0-15-14-12-o|
C#|o-0-15-0-15-------|-0-15---0-15-14-12--|

D#|-------------|-------------|
A#|-------------|-------------|
F#|-------------|-------------|
C#|-7-7-7-7-7-7-|-7-7-7-7-7-7-|
G#|-7-7-7-7-7-7-|-7-7-7-7-7-7-|
C#|-7-7-7-7-7-7-|-7-7-7-7-7-7-|

D#|-------------------|-------------------|
A#|-------------------|-------------------|
F#|-------------------|-------------------|
C#|-10-10-10-10-10-10-|-10-10-10-10-10-10-|
G#|-10-10-10-10-10-10-|-10-10-10-10-10-10-|
C#|-10-10-10-10-10-10-|-10-10-10-10-10-10-|

D#|-------------|-------------|
A#|-------------|-------------|
F#|-------------|-------------|
C#|-5-5-5-5-5-5-|-5-5-5-5-5-5-|
G#|-5-5-5-5-5-5-|-5-5-5-5-5-5-|
C#|-5-5-5-5-5-5-|-5-5-5-5-5-5-|

D#|-------------|-------------|
A#|-------------|-------------|
F#|-------------|-9-9-9-------|
C#|-5-5-6-7-----|-7-7-7-------|
G#|-5-5-6-7-----|-7-7-7-------|
C#|-5-5-6-7-----|-7-7-7-------|


Key:

v     = Vibrato

b     = Bend to x

pm    = Palm mute

|---|
|o-o|
|---|
|---|
|o-o|
|---| = Repeat

/     = Slide up

\     = Slide down 
comments
We did not receive enough feedback on this tab! Please rate:
print report bad tab
1 2 3 4 5
I want to post or [tab]
guest
You may want to rate the tab now too:
select rating
Please do not post tabs as comments. Select "correction" instead!