Oops, an error
Loading. Please wait.

Victory Over The Sun bass

version 1
version 1

Whole song

Interactive

2,617 views 1 this week
3 commentsread comments
1 2 3 4 5
3 more votes to show rating
add to favorites
×
Save as Personal and add changes to this tab that will be seen only by you. Learn more ›
×
You can save this tab as Personal to edit and correct it or add notes. All changes will be seen only by you. Learn more »
launch autoscroll
font size
0
reset
guitar tuner
edit
Autoscroll
slow
fast
+/-
esc
set tempo
stop
Author
Difficulty
Band: Biffy Clyro
Song: Victory Over The Sun
Album: Opposites
Tuning: EbADG

All timings are based on music video

Intro
Come in at 0:12

 G|----------------|
 D|----------------| X2
 A|------6-8-9-----|
Eb|7---------------|

Verse 0:18

 G|----------------|
 D|----------------| X4
 A|----------------|
Eb|7-----7---3-----|

Bridge 0:33

 G|------------------------------------------------------------------------|
 D|------------------------------------------------------------------------|
 A|------------------------------------------------------------------------|
Eb|7---------5-------3---------0-------7---------5-------3---3-2-3-0-------|


Intro again 0:48

 G|----------------|
 D|----------------| X2
 A|------6-8-9-----|
Eb|7---------------|

Verse 0:56

 G|----------------|
 D|----------------| X4
 A|----------------|
Eb|7-----7---3-----|

Second Bridge 1:11 

 G|------------------------------------------------------------------------|
 D|------------------------------------------------------------------------|
 A|------------------------------------------------------------------------|
Eb|7-7-7-7-7-5-5-5-5-3-3-3-3-3-0-0-0-0-7-7-7-7-7-5-5-5-5-3-3-3-3-3-0-0-0-0-|

Main Riff 1:25

 G|------------------------------------------------------------------------|
 D|-------------------------------8\---------------------------------------|
 A|--------------13\------------6-----------------6\--------------6\-------|
Eb|7-7-7-7-7-7-7----7-7-7-7-7-7-----0-0-0-0-0-0-0---0-0-0-0-0-0-0----------|

 G|------------------------------------------------------------------------|
 D|-------------------------------8\---------------------------------------|
 A|--------------13\------------6-----------------6\------------6-6--------|
Eb|7-7-7-7-7-7-7----7-7-7-7-7-7-----0-0-0-0-0-0-0---0-0-0-0-0-0------------|

 G|------------------------------------------------------------------------|
 D|------------------------------------------------------------------------|
 A|------------------------------------------------------------------------|
Eb|5-5-5-5-7-7-7-7-3-3-3-3-3-3-3-33-5-5-5-5-7-7-7-7-3-3-3-3-0-333-0-333-0--|

Chorus 2:04- Watch for timing!
 
 G|----------------------------------------------------------------------|
 D|----------------------------------------------------------------------| X3
 A|1-1-43-1-1/4-4-4-4-4--------------------------------------------------|
Eb|---------------------0--0-0-0-0-0-3-3-3-3-3-3-------------------------|

 G|----------------------------------------------------------------------|
 D|----------------------------------------------------------------------| X1
 A|1-1-43-1-1/4-4-4-4-4--------------------------------------------------|
Eb|---------------------0--0-0-0-0-0-3-3-3-3-3-3-3-3---------------------|

Main Riff part 2 2:28
 
 G|------------------------------------------------------------------------|
 D|-------------------------------8\---------------------------------------|
 A|--------------13\------------6-----------------6\------------6-6--------|
Eb|7-7-7-7-7-7-7----7-7-7-7-7-7-----0-0-0-0-0-0-0---0-0-0-0-0-0------------|

 G|------------------------------------------------------------------------|
 D|------------------------------------------------------------------------|
 A|------------------------------------------------------------------------|
Eb|5-5-5-5-7-7-7-7-3-3-3-3-3-3-3-33-5-5-5-5-7-7-7-7-3-3-3-3-0-333-0-333-0--|

Final Chorus/Outro 2:55- Watch for timings!

 G|----------------------------------------------------------------------|
 D|----------------------------------------------------------------------| X7
 A|1-1-43-1-1/4-4-4-4-4--------------------------------------------------|
Eb|---------------------0--0-0-0-0-0-3-3-3-3-3-3-------------------------|

 G|----------------------------------------------------------------------|
 D|----------------------------------------------------------------------| X1
 A|1-1-43-1-1/4-4-4-4-4--------------------------------------------------|
Eb|---------------------0--0-0-0-0-0-3-3-3-3-3-3-3-3---------------------|

Order:

Intro X2
Verse X4
Bridge
Intro X2
Verse X4
Second Bridge
Main Riff
Chorus
Main Riff Part 2
Final Chorus/Outro

            
            
Suggest correction
Creating personal tab
Creating personal tab
You can edit any tab online and save it as your Personal.

You can edit, replace or remove any tab part or add personal notes – all changes will be seen only by you.

Personal tabs can be accessed anytime from any device, even offline.
Learn more »
Give kudos to tab author, rate the tab!
1 2 3 4 5
comments
print report bad tab
3 comments total.
0 reply
Gibson1006 1,045 Oct 31, 2013 06:10 AM

The Tuning is a bit funny. Sure, it is possible to play it like this but I don't think they do. Please correct me if I am wrong, but I think the right tuning should be halfstep-down.
Also the Chorus is wrong.

0 reply
coco-bbe 80 Dec 16, 2015 01:56 AM

Am I right in assuming that you could play this in standard and just put the 'Eb' notes a fret up? I play bass but I don't want to be retuning the one I use because it's my friend's....

guest
You may want to rate the tab now too:
select rating
Wanna post a correction for this tab? Suggest correction