Oops, an error
Loading. Please wait.

Victory Over The Sun tab

version 1
version 1

Whole song

Interactive

21,738 views 45 this week
6 commentsread comments
1 2 3 4 5
x 4
add to favorites
×
Save as Personal and add changes to this tab that will be seen only by you. Learn more ›
×
You can save this tab as Personal to edit and correct it or add notes. All changes will be seen only by you. Learn more »
launch autoscroll
font size
0
reset
how to read this tab
guitar tuner
edit
Autoscroll
slow
fast
+/-
esc
set tempo
stop
[Intro]
eb|------0h2----0h2---3-|
Bb|---0h3----0h3------2-|
Gb|-4---------------0-0-| (x4)
Db|---------------------|
Ab|---------------------|
Eb|---------------------|

[Verse]
(Section A)
eb|------0h2----0h2-----0-2-|
Bb|---0h3----0h3------3-----|
Gb|-4---------------0-------| (x4)
Db|-------------------------|
Ab|-------------------------|
Eb|-------------------------|

(Section B)
eb|------0h2----0h2-------0---|
Bb|---0h3----0h3--------2-----|
Gb|-4---------------0-4-------|
Db|---------------------------|
Ab|---------------------------|
Eb|---------------------------|
                             (x2)
eb|------0h2----0h2-----------|
Bb|---0h3----0h3--------3-0---|
Gb|-4---------------4-0-------|
Db|---------------------------|
Ab|---------------------------|
Eb|---------------------------|

eb|------0h2----0h2---3-|
Bb|---0h3----0h3------2-|
Gb|-4---------------0-0-|
Db|---------------------|
Ab|---------------------|
Eb|---------------------|

eb|------0h2----0h2---14|
Bb|---0h3----0h3------12|
Gb|-4---------------0---|
Db|---------------------|
Ab|---------------------|
Eb|---------------------|

(Section A) x2
eb|------0h2----0h2-----0-2-|
Bb|---0h3----0h3------3-----|
Gb|-4---------------0-------| (x4)
Db|-------------------------|
Ab|-------------------------|
Eb|-------------------------|

(Section B) x2
eb|------0h2----0h2-------0---|
Bb|---0h3----0h3--------2-----|
Gb|-4---------------0-4-------|
Db|---------------------------|
Ab|---------------------------|
Eb|---------------------------|
                             (x2)
eb|------0h2----0h2-----------|
Bb|---0h3----0h3--------3-0---|
Gb|-4---------------4-0-------|
Db|---------------------------|
Ab|---------------------------|
Eb|---------------------------|

eb|------0h2----0h2---3-|
Bb|---0h3----0h3------2-|
Gb|-4---------------0-0-|
Db|---------------------|
Ab|---------------------|
Eb|---------------------|

eb|------0h2----0h2---14|
Bb|---0h3----0h3------12|
Gb|-4---------------0---|
Db|---------------------|
Ab|---------------------|
Eb|---------------------|

[Pre-chorus]
(Section C) x2
eb|------------------------------|
Bb|------------------------------|
Gb|----7-9-9/11----7-9--11-12-11-| (x4)
Db|-/9-----------/9--------------|
Ab|------------------------------|
Eb|------------------------------|

eb|----7-----------|
Bb|----7-----------|
Gb|----7-----------|(x4)
Db|----x-----------|
Ab|----9-----------|
Eb|----------------|

[Chorus]
eb|----------------------------------------------|
Bb|----------------------------------------------|
Gb|-------------------------121212121212---------|
Db|-9-9999--12121212121212--xxxxxxxxxxxx---------|
Ab|-9-9999--12121212121212--101010101010---------|
Eb|-7-7777--10101010101010-----------------------|

eb|-------------------------------|
Bb|---------788887----------------|
Gb|---------777777--999999--------| (x4)
Db|-9-9999--777777--999999-555555-|
Ab|-9-9999--777777--777777-555555-|
Eb|-7-7777-----------------333333-|

(Section C)
eb|------------------------------|
Bb|------------------------------|
Gb|----7-9-9/11----7-9--11-12-11-| (x4)
Db|-/9-----------/9--------------|
Ab|------------------------------|
Eb|------------------------------|

eb|----7-----------|
Bb|----7-----------|
Gb|----7-----------|(x4)
Db|----x-----------|
Ab|----9-----------|
Eb|----------------|

[Chorus] x2
eb|----------------------------------------------|
Bb|----------------------------------------------|
Gb|-------------------------121212121212---------|
Db|-9-9999--12121212121212--xxxxxxxxxxxx---------|
Ab|-9-9999--12121212121212--101010101010---------|
Eb|-7-7777--10101010101010-----------------------|

eb|-------------------------------|
Bb|---------788887----------------|
Gb|---------777777--999999--------| (x4)
Db|-9-9999--777777--999999-555555-|
Ab|-9-9999--777777--777777-555555-|
Eb|-7-7777-----------------333333-|

[Outro]
eb|---3-------------|
Bb|---3-------------|
Gb|---0-------------|
Db|-----------------|
Ab|-----------------|
Eb|-----------------|


************************************

| h  Hammer-on
| b  Bend
| /  Slide up
| x  Dead note

************************************

            
            
Suggest correction
Creating personal tab
Creating personal tab
You can edit any tab online and save it as your Personal.

You can edit, replace or remove any tab part or add personal notes – all changes will be seen only by you.

Personal tabs can be accessed anytime from any device, even offline.
Learn more »
comments
print report bad tab
6 comments total. Showing first comments.
0 reply
lucianojudge 10 Aug 04, 2012 02:02 AM

id say most of this is correct. the chorus is a bit off, Simon hardly uses power chords and ive watched the download vid countless times to see hes using alternate chords to just power chords. due to the sound quality its really hard to make them out.

0 reply
ianhellshredder 10 Jan 24, 2013 09:04 AM

Id be surprised if this was in that tuning, unusual for biffy

0 reply
rainwater34 1,312 Jan 30, 2013 06:11 AM

Great tabs, very helpful.

guest
You may want to rate the tab now too:
select rating
Wanna post a correction for this tab? Suggest correction