Oops, an error
Loading. Please wait.

Victory Over The Sun Tab

version 2
version 2

Whole song

Interactive

5,165 views 12 this week
6 commentsread comments
1 2 3 4 5
accurate
x 7
add to favorites
launch autoscroll
font size
0
reset
how to read this tab
guitar tuner
Autoscroll
slow
fast
+/-
esc
set tempo
stop
Help us to improve Ultimate-Guitar.com Take our survey!
×
Author
Difficulty
Tuning
novice
C# G# C# F# A# D#
Artist  :       Biffy Clyro
Song    :       Victory over the sun
Album   :       Opposites


Tabbed by Dave Curtis
Any questions/corrections to Sonicboombox@Yahoo.com

Key
~ Let Ring
\Slide up
/Slide down
b Bend
x Mute string




Intro
D#---------0h2---------0h2----3----|
Bb----0h3---------0h3---------2----|
F#--4-----------4----------0--0----|
C#---------------------------------|
G#---------------------------------|
C#---------------------------------| x4


Verse 1
D#---------0h2---------0h2---------0-|
Bb----0h3---------0h3------------3---|
F#--4-----------4--------------4-----|
C#---------------------------5-------|
G#-----------------------------------|
C#-----------------------------------|


Break
D#---------0h2---------0h2----3----|
Bb----0h3---------0h3---------2----|
F#--4-----------4----------0--0----|
C#---------------------------------|
G#---------------------------------|
C#---------------------------------| x2


Verse 2

D#---------0h2---------0---------0-|
Bb----0h3---------0h3----------3---|
F#--4-----------4------------4-----|
C#-------------------------5-------|
G#---------------------------------|
C#---------------------------------|


Then this sexy little riff
D#-----------------------------|
Bb----------6------------6-7-6-|
F#-----6-8-----------6-8-------|
C#--/8------------/8-----------|
G#-----------------------------|
C#-----------------------------| X3


Then                                                                  d u d
D#----------------------------------------------------------------------------|
Bb----------6------------6-7-6~----------------------------------------6-6-6\-|
F#-----6-8-----------6-8-----------------------------------------------6-6-6\-|
C#--/8------------/8----------------------------------------------------------|
G#----------------------------------------------------------------------------|
C#----------------------------------------------------------------------------|
                                Keep diggin for the rest of your days


D#------------------------------------------------------------------------6~--------------|
Bb-----------------------------------------------------------------------------6~---------|
F#-------------------------------------6~----------------------------------------------6~-|
C#-------------------------------------4~-------------------------------------------------|
G#-------------------------------------4~-------------------------------------------------|
C#-------------------------------------4~-------------------------------------------------|
Say something please its time to pay, Smoke crack for me, retract for me      At this 
time Id let you spit in my face


D#----------------------------------------------------------|
Bb----------6------------6---------------6------------6-7-6-|
F#-----6-8-----------6-8------------6-8-----------6-8-------|
C#--/8------------/8-------------/8------------/8-----------|
G#----------------------------------------------------------|
C#----------------------------------------------------------|
I can only make you see the moon you can touch it but thats up to you


D#--------------------------------------------------------------------------------|
Bb----------6------------6---------------6------------6-0-6b-6b-6b-6b-6b-6b-6b-6b-|
F#-----6-8-----------6-8------------6-8-----------6-8-----------------------------|
C#--/8------------/8-------------/8------------/8---------------------------------|
G#--------------------------------------------------------------------------------|
C#--------------------------------------------------------------------------------|
This is happening because of you, you stay special brother you stay true

Chorus
D#----------------------------------------------------|
Bb----------------------------------------------------|
F#-3--5--6--5--3--8--8--8--8--8--8--8--8--8--8--8--8--|
C#-3--5--6--5--3--6--6--6--x--8--8--8--8--6--6--6--6--|
G#-1--3--4--3--1--6--6--6--x--6--6--6--6--6--6--6--6--|
C#----------------6--6--6--x--------------6--6--6--6--|


D#--------------------------------------------------------|
Bb--------------------------------------------------------|
F#-3--5--6--5--3--8--8--8--8--8--8--8--8--11--11--11--11--|
C#-3--5--6--5--3--6--6--6--x--8--8--8--8--11--11--11--11--|
G#-1--3--4--3--1--6--6--6--x--6--6--6--6--9---9---9---9---|
C#----------------6--6--6--x------------------------------|


D#----------------------------------------------------|
Bb----------------------------------------------------|
F#-3--5--6--5--3--8--8--8--8--8--8--8--8--8--8--8--8--|
C#-3--5--6--5--3--6--6--6--x--8--8--8--8--6--6--6--6--|
G#-1--3--4--3--1--6--6--6--x--6--6--6--6--6--6--6--6--|
C#----------------6--6--6--x--------------6--6--6--6--|


D#--------------------------------------------------------|
Bb--------------------------------------------------------|
F#-3--5--6--5--3--8--8--8--8--8--8--8--8--11--11--11--11--|
C#-3--5--6--5--3--6--6--6--x--8--8--8--8--11--11--11--11--|
G#-1--3--4--3--1--6--6--6--x--6--6--6--6--9---9---9---9---|
C#----------------6--6--6--x------------------------------|

Its pretty much a repeat of those riffs for the whole rest of the song except for in the 
sexy bit the second time around he does some slides from

Bb--6/11\6--
                                                                        instead of the

Bb--6-7-6---

Good luck giz an email if ya want any more or have corrections
Suggest correction
comments
print report bad tab
6 comments total. Showing first comments.
0 reply
carlmagnus9 31 wrote on February 3 2013, 08:11 am

I might be wrong, but I thought Simon played the verse like this:
-----0h2----0h2----2
--0h3-----0h3------3
-4-------4---------0

0 reply
carlmagnus9 31 wrote on February 3 2013, 08:14 am

I figured it out, the whole band is tuned in drop C#.
You tabbed the song out so it would sound right on a guitar tuned in drop D.

0 reply
sonicboombox 212 wrote on February 3 2013, 11:04 pm

Yeah you are probably right. I did the tab on an acoustic so not a hope was I tuning down to c#

guest
You may want to rate the tab now too:
select rating
Wanna post a correction for this tab? Suggest correction