Oops, an error
Loading. Please wait.

Weapons Are Concealed Tab

version 2
version 2

Whole song

238 views 1 this week
no commentswrite comment
1 2 3 4 5
3 more votes to show rating
add to favorites
launch autoscroll
font size
0
reset
how to read this tab
guitar tuner
Autoscroll
slow
fast
+/-
esc
set tempo
stop
Help us to improve Ultimate-Guitar.com Take our survey!
×
Author
Difficulty
Tuning
intermediate
D A D G B E
-------------------------------------------------------------------------------
                                        THE WEAPONS ARE CONCEALED - Biffy Clyro
-------------------------------------------------------------------------------
Tabbed by: merkinball15

I realized that there weren't any correct tabs for this song already up, so I 
figured I'd give it a go. 

Tuning: Drop D

Intro (w/ Distortion)
e|---------------------------------------------------------------------------| x2
B|---------------------------------------------------------------------------|
G|---------------8-9-10~-----------------------------------------------------|
D|----10~---8-10-8-9-10~---11~-----------------------------------------------|
A|----10~---8-10-6-7-8~----11~-----------------------------------------------|
D|----10~---8-10-----------11~-----------------------------------------------|

e|---------------------------------------------------------------------------| 
B|---------------------------------------------------------------------------|
G|----17----15-17-20-21---------17----15-17-20-21----------------------------|
D|----x-----x--x--x--x----------x-----x--x--x--x-----------------------------|
A|----15~---13-15-18-19--17b----15~---13-15-18-19----------------------------|
D|-------------------------------------------------15b-----------------------|

Verse (clean)
e|---------------------------------------------------------------------------| x4
B|---------------------------------------------------------------------------|
G|----5----8----9----8-------------------------------------------------------|
D|----x----x----x----x-------------------------------------------------------|
A|----3----x----7----6-------------------------------------------------------|
D|---------6-----------------------------------------------------------------|

e|---------------------------------------------------------------------------| x2
B|---------------------------------------------------------------------------|
G|----7----8----5----7-------------------------------------------------------|
D|----x----x----x----x-------------------------------------------------------|
A|----x----6----3----5-------------------------------------------------------|
D|----5----------------------------------------------------------------------|

e|---------------------------------------------------------------------------| x2
B|---------------------------------------------------------------------------|
G|----5----8----9----8-------------------------------------------------------|
D|----x----x----x----x-------------------------------------------------------|
A|----3----x----7----6-------------------------------------------------------|
D|---------6-----------------------------------------------------------------|

e|---------------------------------------------------------------------------| x2
B|---------------------------------------------------------------------------|
G|----7----8----5----7-------------------------------------------------------|
D|----x----x----x----x-------------------------------------------------------|
A|----x----6----3----5-------------------------------------------------------|
D|----5----------------------------------------------------------------------|

e|---------------------------------------------------------------------------| x2
B|---------------------------------------------------------------------------|
G|----5-------5-------5-------5-------6-------6------5/6/8/6/5~--------------|
D|----x--6----x--6----x--5----x--5----x--6----x--6---x-x-x-x-x---------------|
A|----3-------3-------3-------3-------4-------4------3/4/6\4\3~--------------|
D|---------------------------------------------------------------------------|

e|---------------------------------------------------------------------------|
B|---------------------------------------------------------------------------|
G|----5-6-8-6-5~---5-6-8-6-5~---5-6-8-6-5~-----------------------------------|
D|----x-x-x-x-x----x-x-x-x-x----x-x-x-x-x------------------------------------|
A|----3/4/6\4\3~---3-4-6-4-3~---3-4-6-4-3~-----------------------------------|
D|---------------------------------------------------------------------------|'

Next Part (light distortion)
e|----------0----------------------------------------------------------------| x2
B|----------5------5------7--------------------------------------------------| listen to the
G|----------x------5------7--------------------------------------------------| song for strum 
D|----xxx---7------5------7--------------------------------------------------| pattern and
A|----xxx---0------7------5--------------------------------------------------| number of times 
D|----xxx----------0---------------------------------------------------------| for each chord

e|---------------------------------------------------------------------------|
B|---------------------------------------------------------------------------|
G|--------5-------5-5-------5-5------5-5-------------------------------------|
D|----x---0--xxxx-0-0--xxxx-0-0-xxxx-0-0-xxxx--------------------------------|
A|----x---x--xxxx-x-x--xxxx-x-x-xxxx-x-x-xxxx--------------------------------|
D|----x---7--xxxx-7-7--xxxx-7-7-xxxx-7-7-xxxx--------------------------------|

Bridge (distortion)
e|---------------------------------------------------------------------------| x2
B|----8------5------8------8---------------------------0------7------5-------| listen to the 
G|----7------4------x------x------2------2------2------0------7------5-------| song for strum
D|----5------2------5------4------0------0------x------2------7------5-------| pattern and 
A|----5------2------4------5------x------x------3------2------5------3-------| number of times
D|----5------2-------------0------2------4-----------------------------------| for each chord

Chorus (distortion)
e|---------------------------------------------------------------------------| x2
B|----5------7------7------8------8------------------------------------------| listen to the 
G|----5------7------7------9------9------------------------------------------| song for strum
D|----x------7------x------9------x------------------------------------------| pattern and
A|----7------5------9------7------10-----------------------------------------| number of times
D|----7------0------9-------------10-----------------------------------------| for each chord

Outro
e|---------------------------------------------------------------------------|
B|----5----------------------0~--0---0-0~--0---0-0~------0-0~------------------|
G|----5------4------4-4------1~--1-2-4-1~--1-2-4-1~--1-2-4-1~------------------|
D|----x------2-xxxx-2-2------2~--2-2---2~--2-2---2~--2-2---2~------------------|
A|----7------2-xxxx-2-2-xxxx-2~--2-2---2~--2-2---2~--2-2---2~------------------|
D|----7------2-xxxx-2-2-xxxx-(clean)-------------------------------------------|

Mon the Biff!



************************************

| /   slide up
| \   slide down
| h   hammer-on
| p   pull-off
| ~   vibrato
| +   harmonic
| x   Mute note
| b   Bend
| pb  Pre-bend
| br  Bend release
| pbr Pre-bend release
| brb Bend release bend

************************************
Suggest correction
Give kudos to tab author, rate the tab!
1 2 3 4 5
comments
print report bad tab
guest
You may want to rate the tab now too:
select rating
Wanna post a correction for this tab? Suggest correction