Oops, an error
Loading. Please wait.
We have an official When The Factions Fractioned tab made by UG professional guitarists. Check out the tab »
×
2,053 views 6 this week
no commentswrite comment
1 2 3 4 5
x 3
add to favorites
launch autoscroll
font size
0
reset
how to read this tab
guitar tuner
×
Best way to learn
"When The Factions Fractioned"
Autoscroll
slow
fast
+/-
esc
set tempo
stop
Song - biffy clyro - 'when the faction's fractioned'

Album - 'Vertigo of Bliss'.


Tab 100% by Mr. Jonny Monkfish


Intro/Verse Repeat twice

e|-----------------------------------------------------------|
B|---------(0)-----------------------0-----------------------|
G|----------9-----(x8)-----------9-----9---9----(x4)---------|
D|--0h7-0h7-7------------------7---7-----7-------------------|
A|---------------------------9-------------------------------|
D|-----------------------------------------------------------|

Pre- Chorus

e|-------------------------------------------------------------------|
B|---------------------------The Last few bars play this chord-------|
G|--11----------11------------------------------------------------13-|
D|--11--(x16)---11-(x16)------------------------------------------11-|
A|--9-----------9-------------------------------------------------9--|
D|--9-----------0-------------------------------------------------0--|

Chorus

e|------------------------------------------------------------|
B|-10--------------------------12-----------------------------|
G|-9---(x16 Jazzy Rhythym)-----x-----(x16 Jazzy Rhythym)------|
D|-11--------------------------11-----------------------------|
A|-0---------------------------9------------------------------|
D|------------------------------------------------------------|

'umm', 'ahh', 'fuhh'

e|----------------------------------------------------|
B|--9---9---9--10----10--10--10--12-------------------|
G|--x---x---x--x-----9---9---9---9----(x2)------------|
D|--7---7---7--7-----11--11--11--11-------------------|
A|--7---7---7--7-----0---0---0---0--------------------|
D|--7---7---7--7--------------------------------------|

e|----------------------------------------------|
B|---12--12--12-----10--------------------------|
G|---x---x---x------x-----(x5)------------------|
D|---11--11--11-----11--------------------------|
A|---9---9---9------9---------------------------|
D|----------------------------------------------|

Then back to 'Time is running out..'

Pre-Chorus

e]----------------------------------------|
b]----------------------------------------|
g]--11-11-11-11--------11-11-11-11--------| Repeat 4 times
d]--11-11-11-11-(x16)--11-11-11-11--(x16--|
a]--9--9--9--9---------9--9--9--9---------|
d]--9--9--9--9---------0--0--0--0---------|


'The Girl is running out'


e|----------------------------------|
B|--10----------10------------------|
G|--9-----------9-------------------| Repeat 4 times
D|--0---(x16)---0---(x16)-----------|
A|--0-----------9-------------------|
D|--9-----------0-------------------|


Breakdown

e|------------0-0----2------------------0-0----0--------|
B|---(0)(0)---3-3----3---------(0)(0)---3-3----3--------| Repeat
G|----7--7----0-0----2----------7--7----0-0----5--------| Twice
D|----7--7-----------0----------7--7-----------5--------|
A|------------------------------------------------------|
D|------------------------------------------------------|

Solo (Quick Arpeggios of chords)


e|----------------------3-------------------0--------------|
B|------7-------3-------2-----------7-----3---------3------|
G|----0-------0------2------------0---------------5--------| Repeat
D|--7-------0------0------------5-------0-------5----------| Twice
A|---------------------------------------------------------|
D|---------------------------------------------------------|

Slow Build- up. Repeat the chords gradually faster.

e|---0--------------0---0--0--0-----0--0--0--0-----------|
B|---3--------------3---3--3--3-----5--5--5--5-----------|
G|---5----(x16)-----5---5--5--5-----5--5--5--5-----------|
D|---0--------------0---0--0--0-----0--0--0--0-----------|
A|-------------------------------------------------------|
D|-------------------------------------------------------|


e|------------------|
B|--5---------------|
G|--5-----(x16)-----|
D|--x---------------|
A|--3---------------|
D|------------------|

'We can leave this faction...'

e|-----------------------------------------------|
B|--0----------0----------5----------6-----------|
G|--5--(x8)----3--(x8)----5---(x8)---5-----(x8)--| (Repeat)
D|--5----------5----------x----------x-----------|
A|--3----------2----------3----------3-----------|
D|-----------------------------------------------|

'Start our own'

e|--------------------------------|
B|--------------------------------| Repeat four Times
G|---5-------x---7--x-7-x-7-------|
D|---3--(x6)-x---5--x-5-x-5----7--|
A|---3-------x---5--x-5-x-5----7--|
D|---3-------x---5--x-5-x-5----7--|

Second guitar plays this repeated throughout the outro.

e|----------------------------|
B|----------------------------|
G|---------12-----------------|
D|------10--------------------|
A|---10-----------------------|
D|----------------------------|


'To the sea'

e|--------------------------------------|
B|--------------------------------------|
G|--------------------------------------|
D|------6---------2-----------10--------|
A|------6---------2-----------10--------|
D|------6---------2-----------10--------|


| / slide up
| \ slide down
| h hammer-on
| p pull-off
| ~ vibrato
| + harmonic
| x Mute note
===============================================================================
Suggest correction
Give kudos to tab author, rate the tab!
1 2 3 4 5
comments
print report bad tab
guest
You may want to rate the tab now too:
select rating
Wanna post a correction for this tab? Suggest correction