Oops, an error
Loading. Please wait.
We have an official When The Factions Fractioned tab made by UG professional guitarists. Check out the tab »
×
118 views 1 this week
no commentswrite comment
1 2 3 4 5
3 more votes to show rating
add to favorites
×
Save as Personal and add changes to this tab that will be seen only by you. Learn more ›
×
You can save this tab as Personal to edit and correct it or add notes. All changes will be seen only by you. Learn more »
launch autoscroll
font size
0
reset
how to read this tab
guitar tuner
edit
Autoscroll
slow
fast
+/-
esc
set tempo
stop
When The Faction's Fractioned
Biffy Clyro
Album: The Vertigo of Bliss
Tuning: Dropped D (DADGBe)


[Intro]

e|-----------|-----------|-----------|------------|
B|-----------|-----------|-----------|------------|
G|---------9-|---------9-|---------9-|---------9--|
D|-------7---|-------7---|-------7---|-------7----|
A|-7p9-7-----|-7p9-7-----|-7p9-7-----|-7p9-7------|
D|-----------|-----------|-----------|------------|


[Part 1]

e|-----------|-----------|-----------|------------|
B|-----------|-----------|-----------|------------|
G|---------9-|---------9-|---------9-|---------9--|
D|-------7---|-------7---|-------7---|-------7----|
A|-7p9-7-----|-7p9-7-----|-7p9-7-----|-7p9-7------|
D|-----------|-----------|-----------|------------|

e|---------0-------|---------0-------|---------0-------|---------0-------|
B|-----7-----7---7-|-----7-----7---7-|-----7-----7---7-|-----7-----7---7-|
G|---6---6-----6---|---6---6-----6---|---6---6-----6---|---6---6-----6---|
D|-4---------------|-4---------------|-4---------------|-4---------------|
A|-----------------|-----------------|-----------------|-----------------|
D|-----------------|-----------------|-----------------|-----------------|

e|-----------|-----------|-----------|------------|
B|-----------|-----------|-----------|------------|
G|---------9-|---------9-|---------9-|---------9--|
D|-------7---|-------7---|-------7---|-------7----|
A|-7p9-7-----|-7p9-7-----|-7p9-7-----|-7p9-7------|
D|-----------|-----------|-----------|------------|

e|---------0-------|---------0-------|---------0-------|---------0-------|
B|-----7-----7---7-|-----7-----7---7-|-----7-----7---7-|-----7-----7---7-|
G|---6---6-----6---|---6---6-----6---|---6---6-----6---|---6---6-----6---|
D|-4---------------|-4---------------|-4---------------|-4---------------|
A|-----------------|-----------------|-----------------|-----------------|
D|-----------------|-----------------|-----------------|-----------------|


[Part 2]

e|-------------------------|-------------------------|-------------------------|-------------------------|
B|-------------------------|-------------------------|-------------------------|-------------------------|
G|-11-11-11-11-11-11-11-11-|-11-11-11-11-11-11-11-11-|-11-11-11-11-11-11-11-11-|-11-11-11-11-11-11-11-11-|
D|-11-11-11-11-11-11-11-11-|-11-11-11-11-11-11-11-11-|-11-11-11-11-11-11-11-11-|-11-11-11-11-11-11-11-11-|  x2
A|-9--9--9--9--9--9--9--9--|-9--9--9--9--9--9--9--9--|-9--9--9--9--9--9--9--9--|-9--9--9--9--9--9--9--9--|
D|-9--9--9--9--9--9--9--9--|-9--9--9--9--9--9--9--9--|-0--0--0--0--0--0--0--0--|-0--0--0--0--0--0--0--0--|


[Part 3]

e|-0----0--0----0-|0----0--0--0----|-0----0--0----0-|0----0--0--0----|
B|-10---10-10---10|10---10-10-10---|-9----9--9----9-|9----9--9--9----|
G|-9----9--9----9-|9----9--9--9----|-9----9--9----9-|9----9--9--9----|
D|-11---11-11---11|11---11-11-11---|-11---11-11---11|11---11-11-11---|
A|----------------|----------------|----------------|----------------|
D|----------------|----------------|----------------|----------------|

e|----------------|----------------|----------------|----------------|
B|-12---12-12---12|12---12-12-12---|-12---12-12---12|12---12-12-12---|
G|-x----x--x----x-|x----x--x--x----|-x----x--x----x-|x----x--x--x----|
D|-11---11-11---11|11---11-11-11---|-11---11-11---11|11---11-11-11---|
A|-9----9--9----9-|9----9--9--9----|-9----9--9----9-|9----9--9--9----|
D|----------------|----------------|----------------|----------------|

e|-0----0--0--0----|-0----0--0--0----|-0----0--0--0----|-0----0--0--0----|
B|-9----9--9--10---|-10---10-10-12---|-9----9--9--10---|-12---12-12-10---|
G|-9----9--9--9----|-9----9--9--9----|-9----9--9--9----|-9----9--9--9----|
D|-11---11-11-11---|-11---11-11-11---|-11---11-11-11---|-11---11-11-11---|
A|-----------------|-----------------|-----------------|-----------------|
D|-----------------|-----------------|-----------------|-----------------|

e|-----------------|-----------------|-----------------|------------------|
B|-12---12-12-10---|-12---12-12-10---|-12---12-12-10---|-12---12-12-10-10-|
G|-x----x--x--x----|-x----x--x--x----|-x----x--x--x----|-x----x--x--x--x--|
D|-11---11-11-11---|-11---11-11-11---|-11---11-11-11---|-11---11-11-11-11-|
A|-9----9--9--9----|-9----9--9--9----|-9----9--9--9----|-9----9--9--9--9--|
D|-----------------|-----------------|-----------------|------------------|


[Part 4]

e|-------------------------|-------------------------|-------------------------|-------------------------|
B|-------------------------|-------------------------|-------------------------|-------------------------|
G|-11-11-11-11-11-11-11-11-|-11-11-11-11-11-11-11-11-|-11-11-11-11-11-11-11-11-|-11-11-11-11-11-11-11-11-|
D|-11-11-11-11-11-11-11-11-|-11-11-11-11-11-11-11-11-|-11-11-11-11-11-11-11-11-|-11-11-11-11-11-11-11-11-|  x2
A|-9--9--9--9--9--9--9--9--|-9--9--9--9--9--9--9--9--|-9--9--9--9--9--9--9--9--|-9--9--9--9--9--9--9--9--|
D|-9--9--9--9--9--9--9--9--|-9--9--9--9--9--9--9--9--|-0--0--0--0--0--0--0--0--|-0--0--0--0--0--0--0--0--| 

e|-----------------|-----------------|-------------------------|-------------------------|
B|-----------------|-----------------|-------------------------|-------------------------|
G|-9-9-9-9-9-9-9-9-|-9-9-9-9-9-9-9-9-|-11-11-11-11-11-11-11-11-|-11-11-11-11-11-11-11-11-|
D|-0-0-0-0-0-0-0-0-|-0-0-0-0-0-0-0-0-|-0--0--0--0--0--0--0--0--|-0--0--0--0--0--0--0--0--|
A|-x-x-x-x-x-x-x-x-|-x-x-x-x-x-x-x-x-|-9--9--9--9--9--9--9--9--|-9--9--9--9--9--9--9--9--|
D|-9-9-9-9-9-9-9-9-|-9-9-9-9-9-9-9-9-|-0--0--0--0--0--0--0--0--|-0--0--0--0--0--0--0--0--|

e|-------------------------|-------------------------|-------------------------|-------------------------|
B|-------------------------|-------------------------|-------------------------|-------------------------|
G|-11-11-11-11-11-11-11-11-|-11-11-11-11-11-11-11-11-|-11-11-11-11-11-11-11-11-|-11-11-11-11-11-11-11-11-|
D|-0--0--0--0--0--0--0--0--|-0--0--0--0--0--0--0--0--|-0--0--0--0--0--0--0--0--|-0--0--0--0--0--0--0--0--|
A|-x--x--x--x--x--x--x--x--|-x--x--x--x--x--x--x--x--|-9--9--9--9--9--9--9--9--|-9--9--9--9--9--9--9--9--|
D|-9--9--9--9--9--9--9--9--|-9--9--9--9--9--9--9--9--|-0--0--0--0--0--0--0--0--|-0--0--0--0--0--0--0--0--|


[Instrumental]

e|-----------2--|------2-2--0--|-----------2--|-5-5--2-2--0--|
B|-0-3--3-3--3--|-3-3--0-0--3--|-0-3--3-3--3--|-3-3--0-0--3--|
G|-4-4--0-0--2--|-4-4--2-2--5--|-4-4--0-0--2--|-4-4--2-2--5--|
D|-----------0--|--------------|-----------0--|--------------|
A|--------------|--------------|--------------|--------------|
D|--------------|--------------|--------------|--------------|

e|-----------------|-2-------|-----------2-----|-0-------|
B|-3---0---------3-|---------|-3---0---0-----3-|---------|
G|---4---0---0-2---|---------|---4---2-----5---|---------|
D|---------5-------|---------|-----------------|---------|
A|-----------------|---------|-----------------|---------|
D|-----------------|---------|-----------------|---------|

e|-----------------|-2-------|-----------2-----|-0-------|
B|-3---0---------3-|---------|-3---0---0-----3-|---------|
G|---4---0---0-2---|---------|---4---2-----5---|---------|
D|---------5-------|---------|-----------------|---------|
A|-----------------|---------|-----------------|---------|
D|-----------------|---------|-----------------|---------|


[Part 5]

e|-----------------|-----------------|-----------------|-----------------|
B|-----------------|-----------------|-------3-3-3-3-3-|-3-3-3-3-3-3-3-3-|
G|-5-5-5-5-5-5-5-5-|-5-5-5-5-5-5-5-5-|-5-5-5-5-5-5-5-5-|-5-5-5-5-5-5-5-5-|
D|-----------------|-----------------|-----------------|-----------------|
A|-----------------|-----------------|-----------------|-----------------|
D|-----------------|-----------------|-----------------|-----------------|

e|-----------------|-----------------|-----------------|-----------------|
B|-3-5-5-5-5-3-3-3-|-3-5-5-5-5-3-3-3-|-3-5-5-5-5-3-3-3-|-3-5-5-5-5-3-3-3-|
G|-5-5-5-5-5-5-5-5-|-5-5-5-5-5-5-5-5-|-5-5-5-5-5-5-5-5-|-5-5-5-5-5-5-5-5-|
D|-----------------|-----------------|-----------------|-----------------|
A|-----------------|-----------------|-----------------|-----------------|
D|-----------------|-----------------|-----------------|-----------------|

e|-----------------|-----------------|
B|-5-5-5-5-5-5-5-5-|-6-6-6-6-6-6-6-6-|
G|-5-5-5-5-5-5-5-5-|-5-5-5-5-5-5-5-5-|
D|-----------------|-----------------|
A|-----------------|-----------------|
D|-----------------|-----------------|

e|-----------------|-----------------|-----------------|-----------------|
B|-5-5-5-5-5-5-5-5-|-3-3-3-3-3-3-3-3-|-5-5-5-5-5-5-5-5-|-6-6-6-6-6-6-6-6-|
G|-5-5-5-5-5-5-5-5-|-5-5-5-5-5-5-5-5-|-5-5-5-5-5-5-5-5-|-5-5-5-5-5-5-5-5-|
D|-----------------|-----------------|-----------------|-----------------|  x5
A|-----------------|-----------------|-----------------|-----------------|
D|-----------------|-----------------|-----------------|-----------------|


[Outro]

e|-----------------|--------------------|-----------------|--------------------|
B|-----------------|--------------------|-----------------|--------------------|
G|-5-5-5-5-5-5-5-5-|-7--x-x-7--x-x-7-9--|-5-5-5-5-5-5-5-5-|-7--x-x-7--x-x-7-9--|
D|-3-3-3-3-3-3-3-3-|-5--x-x-5--x-x-5-7--|-3-3-3-3-3-3-3-3-|-5--x-x-5--x-x-5-7--|
A|-3-3-3-3-3-3-3-3-|-5--x-x-5--x-x-5-7--|-3-3-3-3-3-3-3-3-|-5--x-x-5--x-x-5-7--|
D|-3-3-3-3-3-3-3-3-|-5--x-x-5--x-x-5-7--|-3-3-3-3-3-3-3-3-|-5--x-x-5--x-x-5-7--|

e|-----------------|--------------------|-----------------|--------------------|-----|-----|-----|
B|-----------------|--------------------|-----------------|--------------------|-----|-----|-----|
G|-5-5-5-5-5-5-5-5-|-7--x-x-7--x-x-7-9--|-5-5-5-5-5-5-5-5-|-7--x-x-7--x-x-7-9--|-8---|-4---|-12--|
D|-3-3-3-3-3-3-3-3-|-5--x-x-5--x-x-5-7--|-3-3-3-3-3-3-3-3-|-5--x-x-5--x-x-5-7--|-6---|-2---|-10--|
A|-3-3-3-3-3-3-3-3-|-5--x-x-5--x-x-5-7--|-3-3-3-3-3-3-3-3-|-5--x-x-5--x-x-5-7--|-6---|-2---|-10--|
D|-3-3-3-3-3-3-3-3-|-5--x-x-5--x-x-5-7--|-3-3-3-3-3-3-3-3-|-5--x-x-5--x-x-5-7--|-6---|-2---|-10--|



************************************

| x  Dead note
| p  Pull-off

************************************

            
            
Suggest correction
Creating personal tab
Creating personal tab
You can edit any tab online and save it as your Personal.

You can edit, replace or remove any tab part or add personal notes – all changes will be seen only by you.

Personal tabs can be accessed anytime from any device, even offline.
Learn more »
Give kudos to tab author, rate the tab!
1 2 3 4 5
comments
print report bad tab
guest
You may want to rate the tab now too:
select rating
Wanna post a correction for this tab? Suggest correction