Oops, an error
Loading. Please wait.

Whos Got A Match tab

version 2
version 2

Whole song

Interactive

43,963 views 21 this week
5 commentsread comments
1 2 3 4 5
x 12
add to favorites
×
Save as Personal and add changes to this tab that will be seen only by you. Learn more ›
×
You can save this tab as Personal to edit and correct it or add notes. All changes will be seen only by you. Learn more »
launch autoscroll
font size
0
reset
how to read this tab
guitar tuner
edit
Autoscroll
slow
fast
+/-
esc
set tempo
stop
Biffy Clyro - Who’s got a match?
Tabbed by: David H
Tuning: drop D

Bass intro
G|----------------------|
D|----------------------|
A|----------------------|
D|-10p9p7-7-7-7-7-7-7-7-| x4

G|-----------------------------------------------|
D|-----------------------------------------------|
A|-----------------------------------------------|
D|-10p9p7-5-5-5-5-5-5-5-5-10p9p7-7-7-7-5/9\7-7-7-|

Guitar enters
e|---------------------|
B|------------9-10-----|
G|---------8-9----9-10-|
D|-10p9p7-7------------|
A|---------------------|
D|---------------------| x2

e|--------------------|
B|------------7-8-----|
G|---------6-7---7-8--|
D|-10p9p7-5-----------|
A|--------------------|
D|--------------------|

e|---------------------------|
B|------------9-10-----------|
G|---------8-9----9-10-------|
D|-10p9p7-7------------10p9p7|
A|---------------------------|
D|---------------------------|

Chorus
e|-------------------------------------|
B|-------------------------------------|
G|--------10-10-10-10-7-7-7-7----------|
D|-7-7-7-7--------------------5-5-6-6--|
A|-------------------------------------|
D|-------------------------------------|

e|------------------------------------|
B|------------------------------------|
G|--------10-10-10-10-7-7-7-7---------|
D|-7-7-7-7--------------------5-5-6---|
A|------------------------------------|
D|------------------------------------|

e|---------------------|
B|------------9-10-----|
G|---------8-9----9-10-|
D|-10p9p7-7------------|
A|---------------------|
D|---------------------| x2

Repeat verse + chorus


After chorus
e|-----------------|
B|-----------------|
G|-----------------|
D|--7--10--7-------|
A|--7--10--7-------|
D|--7--10--7-------|

e|-----------------|
B|-----------------|
G|-----------------|
D|---x5--7---------|
A|---x5--7---------|
D|---x5--7---------|

e|--------------------------|
B|--------------------------|
G|-------------14141414-----|
D|--7--10--7---12121212-----|
A|--7--10--7---12121212etc--|
D|--7--10--7---12121212-----|


e|------------------   ------------------|
B|------------------   ------------------|
G|------------------   ------------------|
D|-15p14p12-0-0-----x5 -10/14\12-0-0-----|
A|-15p14p12-0-0-----   -10/14\12-0-0-----|
D|-15p14p12-0-0-----   -10/14\12-0-0-----|

e|-------------------------------|
B|-------------------------------|
G|-------------------------------|
D|-15p14p12-0-0---10/14\12-0-0---|
A|-15p14p12-0-0---10/14\12-0-0---|
D|-15p14p12-0-0---10/14\12-0-0---|

e|------------|
B|------------|
G|------------|
D|-15p14p12---|
A|-15p14p12---|
D|-15p14p12---|

e|------------------------------------------|
B|------------------------------------------|
G|-9-------10-------7-----------------------|
D|-7-(x8)--10-(x8)--7-(x8)--5-------6-------|
A|-7-------8--------5-------5-(x4)--6-(x4)--| x3
D|-7------------------------5-------6-------|

e|------------------------------------------|
B|------------------------------------------|
G|-9-------10-------7-----------------------|
D|-7-(x8)--10-(x8)--7-(x8)--5-------6-------|
A|-7-------8--------5-------5-(x4)--6-(x2)--| 
D|-7------------------------5-------6-------|

e|---------------------------|
B|---------------------------|
G|---------------------------|
D|-10p9p7-7-7--  -5/9\7--\---|
A|-10p9p7-7-7--x3-5/9\7--\---|
D|-10p9p7-7-7--  -5/9\7--\---|

Enjoy


Key
p = pull off
\ = slide down
/= slide up


            
            
Suggest correction
Creating personal tab
Creating personal tab
You can edit any tab online and save it as your Personal.

You can edit, replace or remove any tab part or add personal notes – all changes will be seen only by you.

Personal tabs can be accessed anytime from any device, even offline.
Learn more »
comments
print report bad tab
5 comments total. Showing first comments.
0 reply
outsidehelp 10 Jun 30, 2007 02:35 PM

this tab is spot on.

MON THE BIFFY!

0 reply
prophetsfan 20 Feb 02, 2008 01:22 PM

nice tab
outside help, i screamed that when they supported lp and the vocalist who i forgot the name of looked at me and smiled lol :)

0 reply
prophetsfan 20 Feb 02, 2008 01:24 PM

i think this sounds better though, even though its a bit harder

Guitar enters
e|---------------------|
B|------------9-10-----|
G|---------8-9----9-10-|
D|-10p9---7------------|
A|------9--------------|
D|---------------------|

guest
You may want to rate the tab now too:
select rating
Wanna post a correction for this tab? Suggest correction