Oops, an error
Loading. Please wait.

Wolves Of Winter tab

version 1
version 1

Whole song

Interactive

17,101 views 153 this week
2 commentsread comments
1 2 3 4 5
x 15
add to favorites
×
Save as Personal and add changes to this tab that will be seen only by you. Learn more ›
×
You can save this tab as Personal to edit and correct it or add notes. All changes will be seen only by you. Learn more »
launch autoscroll
font size
0
reset
how to read this tab
guitar tuner
edit
Autoscroll
slow
fast
+/-
esc
set tempo
stop
[Intro]

D|---------------------------------------------------------------------------|
A|---------------------------------------------------------------------------|
F|---------------------------------------------------------------------------|
C|-0-0~------------0-0-------------------------------------------------------|
G|-0-0~------------0-0--x4---------------------------------------------------|
C|-0-0~------------0-0-------------------------------------------------------|

D|---------------------------------------------------------------------------|
A|---------------------------------------------------------------------------|
F|-----7-7-7-7-7-7-7-7----------5-5-5-5-5-5-5-5----------9-9-9-9-9-9-9-9-----|
C|-0-0-x-x-x-x-x-x-x-x--x4--0-0-x-x-x-x-x-x-x-x--x2--0-0-x-x-x-x-x-x-x-x-----|
G|-0-0-5-5-5-5-5-5-5-5------0-0-3-3-3-3-3-3-3-3------0-0-7-7-7-7-7-7-7-7-----|
C|-0-0----------------------0-0----------------------0-0---------------------|

D|---------------------------------------------------------------------------|
A|---------------------------------------------------------------------------|
F|-----11-11-11-11-11-11-11-11-----------------------------------------------|
C|-0-0-x--x--x--x--x--x--x--x------------------------------------------------|
G|-0-0-9--9--9--9--9--9--9--9------------------------------------------------|
C|-0-0-----------------------------------------------------------------------|


[Verse]

D|---------------------------------------------------------------------------|
A|---------------------------------------------------------------------------|
F|------------------------7-7-7-7-7-7-7-7------7-7-7-7-7---------------------|
C|-0-0----------------0-0-x-x-x-x-x-x-x-x--0-0-x-x-x-x-x--5-5----------------|
G|-0-0----------------0-0-5-5-5-5-5-5-5-5--0-0-5-5-5-5-5--5-5----------------|
C|-0-0----------------0-0------------------0-0------------5-5----------------|

D|---------------------------------------------------------------------------|
A|---------------------------------------------------------------------------|
F|-----7-7-7-7-7-7-7-7------7-7-7-7------------------------------------------|
C|-3-3-x-x-x-x-x-x-x-x--2-2-x-x-x-x------------------------------------------|
G|-3-3-5-5-5-5-5-5-5-5--2-2-5-5-5-5------------------------------------------|
C|-3-3------------------2-2--------------------------------------------------|


[Verse continued]

[Guitar 1]
D|---------------------------------------------------------------------------|
A|---------------------------------------------------------------------------|
F|---------------------------------------------------------------------------|
C|-0-0------0-0----0-0------0-0----5-5------5-5----3-3------2-2--------------|
G|-0-0------0-0----0-0------0-0----5-5------5-5----3-3------2-2--------------|
C|-0-0------0-0----0-0------0-0----5-5------5-5----3-3------2-2--------------|

[Guitar 2]
D|---------------------------------------------------------------------------|
A|---------------------------------------------------------------------------|
F|-7-------------------------------------------------------------------------|
C|-x-xn----------------------------------------------------------------------|
G|-5-------------------------------------------------------------------------|
C|---------------------------------------------------------------------------|


[Pre Chorus]

D|---------------------------------------------------------------------------|
A|---------------------------------------------------------------------------|
F|---------------------------------------------------------------------------|
C|-8-----5-----0-----9-----8-----7-------------------------------------------|
G|-8-x6--5-x6--0-x6--9-x6--8-x6--7-x6----------------------------------------|
C|-8-----5-----0-----9-----8-----7-------------------------------------------|

[Guitar 2]
D|---------------------------------------------------------------------------|
A|---------------------------------------------------------------------------|
F|-7-------------------------------------------------------------------------|
C|-x-xn----------------------------------------------------------------------|
G|-5-------------------------------------------------------------------------|
C|---------------------------------------------------------------------------|


[Chorus]

D|-------------------------------------|-------------------------------------|
A|-------------------------------------|-------------------------------------|
F|-------------------------------------|-------------------------------------|
C|-------------------------------------|-------------------------8-8-8-8-7-7-|
G|-------------------------------------|-------------------------------------|
C|-0---0---4---4---5---5---8-8-8-8-7-7-|-0---0---4---4---5---5---------------|

D|-------------------------------------|-------------------------------------|
A|-------------------------------------|-------------------------------------|
F|-7------6-------7---------------5-/7-|-7-------6-------7-------------------|
C|----7-------7-------7--8-8-8-8-------|-----7-------7-------7---8-8-8-8-7-7-|
G|-------------------------------------|-------------------------------------|
C|-------------------------------------|-------------------------------------|

D|---------------------------------------------------------------------------|
A|-----10---8----------------------------------------------------------------|
F|-7------------9---7---6/9\7------------------------------------------------|
C|------------------------------8p7------------------------------------------|
G|---------------------------------------------------------------------------|
C|---------------------------------------------------------------------------|


[Verse]

D|---------------------------------------------------------------------------|
A|---------------------------------------------------------------------------|
F|------------------------------------------6/9~-----------------------------|
C|-0-0~------0-0---------5-5~------3-3---------------------------------------|
G|-0-0~------0-0---------5-5~------3-3---------------------------------------|
C|-0-0~------0-0---------5-5~------3-3---------------------------------------|

[Verse continued]

[Guitar 1]
D|---------------------------------------------------------------------------|
A|---------------------------------------------------------------------------|
F|-\7------------------------------------------------------------------------|
C|--0-0------0-0----0-0------0-0----5-5------5-5----3-3------2-2-------------|
G|--0-0------0-0----0-0------0-0----5-5------5-5----3-3------2-2-------------|
C|--0-0------0-0----0-0------0-0----5-5------5-5----3-3------2-2-------------|

[Guitar 2]
D|---------------------------------------------------------------------------|
A|---------------------------------------------------------------------------|
F|-7-------------------------------------------------------------------------|
C|-x-xn----------------------------------------------------------------------|
G|-5-------------------------------------------------------------------------|
C|---------------------------------------------------------------------------|


[Pre Chorus]

D|---------------------------------------------------------------------------|
A|---------------------------------------------------------------------------|
F|---------------------------------------------------------------------------|
C|-8-----5-----0-----9-----8-----7-------------------------------------------|
G|-8-x6--5-x6--0-x6--9-x6--8-x6--7-x6----------------------------------------|
C|-8-----5-----0-----9-----8-----7-------------------------------------------|

[Guitar 2]
D|---------------------------------------------------------------------------|
A|---------------------------------------------------------------------------|
F|-7-------------------------------------------------------------------------|
C|-x-xn----------------------------------------------------------------------|
G|-5-------------------------------------------------------------------------|
C|---------------------------------------------------------------------------|


[Chorus]

[Guitar 1]
D|---------------------------------------------------------------------------|
A|---------------------------------------------------------------------------|
F|---------------------------------------------------------------------------|
C|--~---~---~---~---~---~--8-8-8-8-7-7---------------------------------------|
G|--~---~---~---~---~---~--8-8-8-8-7-7--x2 ----------------------------------|
C|-0~x8-~--4~x8----5~x8-~--8-8-8-8-7-7---------------------------------------|


[Chorus 2nd time]

[Guitar 1]
D|---------------------------------------------------------------------------|
A|---------------------------------------------------------------------------|
F|-7\-2/-6\-2/-7\-2--3-3-3-3-5-/7---7\-2/-6\-2/-7\-2------------7-9-10-------|
C|-----------------------------------------------------7-8-10----------------|
G|---------------------------------------------------------------------------|
C|---------------------------------------------------------------------------|

[Guitar 2]
D|---------------------------------------------------------------------------|
A|---------------------------------------------------------------------------|
F|---------------------------------------------------------------------------|
C|-0~--0~--4~--4~--5~--5~--8-8-8-8-7-7---------------------------------------|
G|-0~--0~--4~--4~--5~--5~--8-8-8-8-7-7--x2 ----------------------------------|
C|-0~--0~--4~--4~--5~--5~--8-8-8-8-7-7---------------------------------------|


[Solo]

D|---------------------------------------------------------------------------|
A|---------------------------------------------------------------------------|
F|-----12b14--12b14-----12b14--12p10h12~----10-9-10-9-10-10p9----------------|
C|------------------------------------------------------------10~------------|
G|---------------------------------------------------------------------------|
C|---------------------------------------------------------------------------|

D|-------------------------------------------------------------13p12---------|
A|------------------------------------------------------15p13---------15p13--|
F|-9-10-10-9-10-10p9-----------------------12-14-15-17-----------------------|
C|--------------------10/12~-----12h14h15------------------------------------|
G|---------------------------------------------------------------------------|
C|---------------------------------------------------------------------------|

D|-13p12---------13p12---------13p12--15b17--15~-13-12-13-12-13-12-13p12-----|
A|--------15p13---------15p13--------------------------------------------13--|
F|----------------------------------------------------------------------~----|
C|---------------------------------------------------------------------------|
G|---------------------------------------------------------------------------|
C|---------------------------------------------------------------------------|

D|---------------------------------------------------------------------------|
A|---------------------------13b15--13b15--------16b18-----------------------|
F|----------17-----------17--17b19--17b19------------------------------------|
C|-14h15h17-----14h15h17-----------------------------------------------------|
G|---------------------------------------------------------------------------|
C|---------------------------------------------------------------------------|



[Chorus]

D|---------------------------------------------------------------------------|
A|---------------------------------------------------------------------------|
F|---------------------------7-7-7-7-7-7-7-7------7-7-7-7-7-7-7-7------------|
C|-0-0~-------4-4--------5-5-x-x-x-x-x-x-x-x--5-5-x-x-x-x-x-x-x-x--x2--------|
G|-0-0~-------4-4--------5-5-5-5-5-5-5-5-5-5--5-5-5-5-5-5-5-5-5-5------------|
C|-0-0~-------4-4--------5-5------------------5-5----------------------------|


[Outro]

D|--------------------------------------------------------------|------------|
A|--------------------------------------------------------------|------------|
F|-----7-7-7-7-7-7-7-7------7-7-7-7-7------2-2~-------2-2~------|-2-2--------|
C|-0-0-x-x-x-x-x-x-x-x--0-0-x-x-x-x-x--x2--0-0~-------0-0~--x2--|-0-0--------|
G|-0-0-5-5-5-5-5-5-5-5--0-0-5-5-5-5-5------0-0~-------0-0~------|-0-0--------|
C|-0-0------------------0-0----------------0-0~-------0-0~------|-0-0--------|

************************************

| x   Dead note
| h   Hammer-on
| p   Pull-off
| r   Release
| b   Bend
| /   Slide up
| \   Slide down

************************************

            
            
Suggest correction
Creating personal tab
Creating personal tab
You can edit any tab online and save it as your Personal.

You can edit, replace or remove any tab part or add personal notes – all changes will be seen only by you.

Personal tabs can be accessed anytime from any device, even offline.
Learn more »
comments
print report bad tab
2 comments total.
0 reply
DavidMorgan 38 Jun 07, 2016 12:00 PM, edited at 04:00 pm

The middle two lines of tab for the solo are missing the two notes that happen in between the A: 15p13 and the D: 13p12. I have made the changes below.D|-------------------------------------------------------------13p12-----------|A|-----------------------------------------------------15p13--------13-15p13---|F|-9-10-10-9-10-10p9-----------------------12-14-15-17-------14--------------14|C|--------------------10/12~-----12h14p12--------------------------------------|G|-----------------------------------------------------------------------------|C|-----------------------------------------------------------------------------|D|-13p12---------13p12----------13p12--15b17--15~-----------------------------|A|------13-15p13-------13-15p13------13---------------18-17-18-17-18-17p15----|F|--------------14-------------14------------------------------------------17~|C|----------------------------------------------------------------------------|G|----------------------------------------------------------------------------|C|----------------------------------------------------------------------------|

0 reply
DavidMorgan 38 Jun 07, 2016 12:06 PM, edited at 04:09 pm

After every "A: 15p13" should be a "F: 14", and after every "D: 13p12" there should be "A: 13"
D |---------13p12----------13p12---|
A|-15p13--------13-15p13-------13-|
F|------14--------------14--------|
C|--------------------------------|
G|--------------------------------|
C|--------------------------------|

guest
You may want to rate the tab now too:
select rating
Wanna post a correction for this tab? Suggest correction