Oops, an error
Loading. Please wait.

Wolves Of Winter tab

version 2
version 2

Whole song

Interactive

1,600 views 3 this week
no commentswrite comment
1 2 3 4 5
x 4
add to favorites
×
Save as Personal and add changes to this tab that will be seen only by you. Learn more ›
×
You can save this tab as Personal to edit and correct it or add notes. All changes will be seen only by you. Learn more »
launch autoscroll
font size
0
reset
how to read this tab
guitar tuner
edit
Autoscroll
slow
fast
+/-
esc
set tempo
stop
Video: https://www.youtube.com/watch?v=dkT2M-AIP9w
Tuning: CGCFGC

[Intro] We are the Wolves!!!!!!
C|------------------------------------------------------------------------------|
G|------------------------------------------------------------------------------|
F|------------------------------------------------------------------------------|
C|-0-0-----0-0----0-0------0-0------0-0-----------------------------------------|
G|-0-0-----0-0----0-0------0-0------0-0-----------------------------------------|
C|-0-0-----0-0----0-0------0-0------0-0-----------------------------------------|


C|------------------------------------------------------------------------------|
G|------------------------------------------------------------------------------|
F|-----7--------7---------7---------7---------5--------5--------9--------11-----|
C|-0-0-x-x8-----x-x8------x-x8------x-x8------x-x8-----x-x8-----x-x8-----x-x8---|
G|-0-0-5--------5---------5---------5---------3--------3--------7--------9------|
C|-0-0------0-0-------0-0-------0-0-------0-0------0-0------0-0------0-0--------|


[Verse1] How's it gonna feel...
C|------------------------------------------------------------------------------|
G|------------------------------------------------------------------------------|
F|-------------7---------7----------------7----------7--------------------------|
C|-0-0-----0-0-x-x8--0-0-x-x5--5-5---3-3--x-x8--2-2--x-x8-----------------------|
G|-0-0-----0-0-5-----0-0-5-----5-5---3-3--5-----2-2--5--------------------------|
C|-0-0-----0-0-------0-0-------5-5---3-3--------2-2-----------------------------|

You are no exception            Your fits of paranoia
C|-------------|-----------------------------------------------------------------|
G|-------------|-----------------------------------------------------------------|
F|---7---------|---7-7-7-7-7-7-7-7-7-7-7-7-7-7-7-7-7-7-7-7-7-7-7-7-6h-7----------|
C|---x---------|-----------------------------------------------------------------|
G|---5---------|-----------------------------------------------------------------|
C|-------------|-----------------------------------------------------------------|


C|------------------------------------------------------------------------------|
G|------------------------------------------------------------------------------|
F|-7-7-7-7-7-7-7-7-7-7-7-7-7-7-7-7-7-7-7-7-7-7-7-7-6-6-6-6-6-6-6-6-6-6-6-6-6----|
C|------------------------------------------------------------------------------|
G|------------------------------------------------------------------------------|
C|------------------------------------------------------------------------------|

[Chorus] We have achieved so much more
C|------------------------------------------------------------------------------|
G|------------------------------------------------------------------------------|
F|-------------------15--15--15--15--14--14-------------------------------------|
C|-0-0----4-4---5-5--x---x---x---x---x---x--------------------------------------|x2
G|-0-0----4-4---5-5--13--13--13--13--12--12-------------------------------------|
C|-0-0----4-4---5-5-------------------------------------------------------------|

We are the Woooolves of Winter
C|------------------------------------------------------------------------------|
G|------------------------------------------------------------------------------|
F|-19---14---18---14-----19---14------15---15---15---15---17---19---------------|
C|-x----x----x----x------x----x-------x----x----x----x----x----x----------------|
G|-17---12---16---12-----17---12------13---13---13---13---15---17---------------|
C|------------------------------------------------------------------------------|

We live in a Kingdom of Blood
C|------------------------------------------------------------------------------|
G|------------------------------------------------------------------------------|
F|-19---14---18---14-----19---14------15---15---15---15---14---14---------------|
C|-x----x----x----x------x----x-------x----x----x----x----x----x----------------|
G|-17---12---16---12-----17---12------13---13---13---13---12---12---------------|
C|------------------------------------------------------------------------------|

Melody
C|------------------------------------------------------------------------------|
G|------------------------------------------------------------------------------|
F|----14--12--9--7--6/-9--7--3p-2-----------------------------------------------|
C|-12---------------------------------------------------------------------------|
G|------------------------------------------------------------------------------|
C|------------------------------------------------------------------------------|

[Verse2] When you gonna rise...
C|------------------------------------------------------------------------------|
G|------------------------------------------------------------------------------|
F|----------------------------------------------5/-9----------------------------|
C|-0-0-----------0-0----5-5-------------3-3-----x/-x----------------------------|
G|-0-0-----------0-0----5-5-------------3-3-----3/-7----------------------------|
C|-0-0-----------0-0----5-5-------------3-3-------------------------------------|

This is true opsession                      You stink of hallelujah
C|-------------|----------------------------------------------------------------|
G|-------------|----------------------------------------------------------------|
F|---7---------|---7-7-7-7-7-7-7-7-7-7-7-7-7-7-7-7-7-7-7-7-7-7-7-7-6h-7---------|
C|---x---------|----------------------------------------------------------------|
G|---5---------|----------------------------------------------------------------|
C|-------------|----------------------------------------------------------------|


C|------------------------------------------------------------------------------|
G|------------------------------------------------------------------------------|
F|-7-7-7-7-7-7-7-7-7-7-7-7-7-7-7-7-7-7-7-7-7-7-7-7-6-6-6-6-6-6-6-6-6-6-6-6-6----|
C|------------------------------------------------------------------------------|
G|------------------------------------------------------------------------------|
C|------------------------------------------------------------------------------|


[Chorus] We have achieved so much more
C|------------------------------------------------------------------------------|
G|------------------------------------------------------------------------------|
F|------------------------------------------------------------------------------|
C|-0---0-----0-----4---4-----4------5---5-----5------15---15---15---15---14---14|x2
G|-0---0-x4--0-x3--4---4-x4--4-x3---5---5-x4--5-x3---x----x----x----x----x----x-|
C|-0---0-----0-----4---4-----4------5---5-----5------13---13---13---13---12---12|

We are the Woooolves of Winter
C|------------------------------------------------------------------------------|
G|------------------------------------------------------------------------------|
F|-19---14---18---14-----19---14------15---15---15---15---17---19---------------|
C|-x----x----x----x------x----x-------x----x----x----x----x----x----------------|
G|-17---12---16---12-----17---12------13---13---13---13---15---17---------------|
C|------------------------------------------------------------------------------|

We live in a Kingdom of Blood
C|------------------------------------------------------------------------------|
G|------------------------------------------------------------------------------|
F|-19---14---18---14-----19---14------15---15---15---15---14---14---------------|
C|-x----x----x----x------x----x-------x----x----x----x----x----x----------------|
G|-17---12---16---12-----17---12------13---13---13---13---12---12---------------|
C|------------------------------------------------------------------------------|

Solo
C|------------------------------------------------------------------------------|
G|------------------------------------------------------------------------------|
F|-2-3-5-7-9-10--12b-12b-12b-12---10-9-10-9-10-10p-9-5---10-9-10-9-10-10p-9-5/-7|
C|------------------------------------------------------------------------------|
G|------------------------------------------------------------------------------|
C|------------------------------------------------------------------------------|

C|-------------------------------------15p-14p-0------------15p-14p-0-----------|
G|---------------------------17p-15p-0------------17p-15p-0---------------------|
F|-7h-9/-10/-12/-14/-15/-17-----------------------------------------------------|
C|------------------------------------------------------------------------------|
G|------------------------------------------------------------------------------|
C|------------------------------------------------------------------------------|

C|-----------15p-14p-0-----------15p-14p-0---17b--17---15-14-15-14-15-15p-14-15-|
G|-17p-15p-0-----------17p-15p-0------------------------------------------------|
F|------------------------------------------------------------------------------|
C|------------------------------------------------------------------------------|
G|------------------------------------------------------------------------------|
C|------------------------------------------------------------------------------|

C|-----------10-----------10----------------------------------------------------|
G|-----------------------------15b-15b-17b--------------------------------------|
F|-9h-10h-12----9h-10h-12-------------------------------------------------------|
C|------------------------------------------------------------------------------|
G|------------------------------------------------------------------------------|
C|------------------------------------------------------------------------------|

[Chorus] We are the Wolves of Winter
C|------------------------------------------------------------------------------|
G|------------------------------------------------------------------------------|
F|---------------------------7----------7---------------------------------------|
C|-0-0-----------4-4----5-5--x-x8--5-5--x-x8------------------------------------|x2
G|-0-0-----------4-4----5-5--5-----5-5--5---------------------------------------|
C|-0-0-----------4-4----5-5--------5-5------------------------------------------|

[Outro]
C|------------------------------------------------------------------------------|
G|------------------------------------------------------------------------------|
F|------7----------7---------7----------7---------------------------------------|
C|-0-0--x-x8--0-0--x-x5--0-0-x-x8---0-0-x-x5---0-0--0-0--0-0--0-0---------------|
G|-0-0--5-----0-0--5-----0-0-5------0-0-5------0-0--0-0--0-0--0-0---------------|
C|-0-0--------0-0--------0-0--------0-0--------0-0--0-0--0-0--0-0---------------|

thanks for watching!!! Cheers!!!



************************************

| x   Dead note
| g   Grace note
| (n) Ghost note
| h   Hammer-on
| p   Pull-off
| r   Release
| >   Accented note
| t   Tapping
| b   Bend
| br  Bend release
| pb  Pre-bend
| pbr Pre-bend release
| /   Slide up
| \   Slide down
| ~   Vibrato
| s   Slap
| P   Pop
| PM  Palm mute
| TR  Trill
| N   Tremolo

************************************
Suggest correction
Creating personal tab
Creating personal tab
You can edit any tab online and save it as your Personal.

You can edit, replace or remove any tab part or add personal notes – all changes will be seen only by you.

Personal tabs can be accessed anytime from any device, even offline.
Learn more »
comments
print report bad tab
guest
You may want to rate the tab now too:
select rating
Wanna post a correction for this tab? Suggest correction