Oops, an error
Loading. Please wait.

Wolves Of Winter Tab

version 3
version 3

Whole song

Interactive

199 views 12 this week
no commentswrite comment
1 2 3 4 5
1 last vote to show rating
add to favorites
launch autoscroll
font size
0
reset
how to read this tab
guitar tuner
Autoscroll
slow
fast
+/-
esc
set tempo
stop
Help us to improve Ultimate-Guitar.com Take our survey!
×
Author
Difficulty
intermediate
Biffy Clyro – Wolves Of Winter

Album: Ellipsis
Tuning: CGCFGC


[Intro]

C|-0-0----0-0----|
G|-0-0----0-0----|
F|-2-2----2-2----|
C|-0-0----0-0----|       
G|-0-0----0-0----|
C|-0-0----0-0----|(x4)


[Main Riff]

C|---------------------|
G|---------------------|
F|-----7-7-7-7-7-7-7-7-|
C|-0-0-----------------| 
G|-0-0-5-5-5-5-5-5-5-5-|
C|-0-0-----------------|(x4)

C|---------------------|
G|---------------------|
F|-----5-5-5-5-5-5-5-5-|
C|-0-0-----------------| 
G|-0-0-3-3-3-3-3-3-3-3-|
C|-0-0-----------------|(x2)

C|---------------------|
G|---------------------|
F|-----9-9-9-9-9-9-9-9-|
C|-0-0-----------------|
G|-0-0-7-7-7-7-7-7-7-7-|
C|-0-0-----------------|

C|-----------------------------|
G|-----------------------------|
F|-----11-11-11-11-11-11-11-11-|
C|-0-0-------------------------|
G|-0-0-9--9--9--9--9--9--9--9--|
C|-0-0-------------------------|


[Verse 1 Riff]

C|---------------------------------------------|
G|---------------------------------------------|
F|---------------7-7-7-7-7-7-7-7-----7-7-7-7-7-|
C|-0-0-------0-0-----------------0-0-----------|
G|-0-0-------0-0-5-5-5-5-5-5-5-5-0-0-5-5-5-5-5-|
C|-0-0-------0-0-----------------0-0-----------|

C|---------------------------------------------|
G|---------------------------------------------|
F|---------------7-7-7-7-7-7-7-7-----7-7-7-7-7-|
C|-5-5-------3-3-----------------2-2-----------|
G|-5-5-------3-3-5-5-5-5-5-5-5-5-2-2-5-5-5-5-5-|
C|-5-5-------3-3-----------------2-2-----------|


[Verse Variation]

Guitar 1 (repeat as needed):

C|-----------------|
G|-----------------|
F|-7-7-7-7-7-7-7-7-|
C|-----------------|
G|-5-5-5-5-5-5-5-5-|
C|-----------------|


[Verse Variation]

Guitar 2
C|------------------------------------------------------------------------|
G|------------------------------------------------------------------------|
F|------------------------------------------------------------------------|
C|-0-0-------0-0----0-0-------0-0----5-5-------5-5----3-3-------2-2-------|
G|-0-0-------0-0----0-0-------0-0----5-5-------5-5----3-3-------2-2-------|
C|-0-0-------0-0----0-0-------0-0----5-5-------5-5----3-3-------2-2-------|


[Pre-Chorus] 

Guitar 1
C|---------------------------------------------------|
G|---------------------------------------------------|
F|-6/7-7-7-7-7-7-7-7-7-7-7-7-7-7-7-7-7-7-7-7-7-7-7-7-|
C|---------------------------------------------------|   
G|---------------------------------------------------|
C|---------------------------------------------------|(x5)

C|---------------------------------------------------|
G|---------------------------------------------------|
F|-6-6-6-6-6-6-6-6-6-6-6-6-6-6-6-6-6-6-6-6-6-6-6-6-6-|
C|---------------------------------------------------|
G|---------------------------------------------------|
C|---------------------------------------------------|


[Pre-Chorus]

Guitar 2
C|------------------------------------------------------------------------------------------|
G|------------------------------------------------------------------------------------------|
F|-7-7----7-7----7-7-7----7-7----7-7----7-7-7----7-7----7-7----7-7-7----7-7----7-7----7-7-7-|
C|-8-8----8-8----8-8-8----5-5----5-5----5-5-5----0-0----0-0----0-0-0----9-9----9-9----9-9-9-|
G|-8-8----8-8----8-8-8----5-5----5-5----5-5-5----0-0----0-0----0-0-0----9-9----9-9----9-9-9-|
C|-8-8----8-8----8-8-8----5-5----5-5----5-5-5----0-0----0-0----0-0-0----9-9----9-9----9-9-9-|

C|--------------------------------------------|
G|--------------------------------------------|
F|-7-7----7-7----7-7-7----6-6----6-6----6-6-6-|
C|-8-8----8-8----8-8-8----7-7----7-7----7-7-7-|
G|-8-8----8-8----8-8-8----7-7----7-7----7-7-7-|
C|-8-8----8-8----8-8-8----7-7----7-7----7-7-7-|


[Chorus 1]

C|-------------------------------------------------|
G|-------------------------------------------------|
F|-------------------------------15-15-15-15-14-14-|
C|-------------------------------------------------|     
G|-------------------------------13-13-13-13\12-12-|
C|-0----0----4----4----5----5----------------------|(x2)


[Chorus 1 Variation]

C|----------------------------------------------------|
G|----------------------------------------------------|
F|-19----14----18----14----19----14----15-15-15-17-19-|
C|----------------------------------------------------|
G|-17----12----16----12----17----12----13-13-13-15/17-|
C|----------------------------------------------------|

C|-------------------------------------------------------|
G|-------------------------------------------------------|
F|-19----14----18----14----19----14----15-15-15-15-14-14-|
C|-------------------------------------------------------|
G|-17----12----16----12----17----12----13-13-13-13\12-12-|
C|-------------------------------------------------------|


[Interlude]

C|------------------------------------------|
G|------------------------------------------|
F|-------14----12----9----7----6/9\7----3\2-|
C|-12---------------------------------------|
G|------------------------------------------|
C|------------------------------------------|


[Verse 2 Riff]

C|---------------------------------------------|
G|---------------------------------------------|
F|-2-2-------2-2---------------------------5/9-|
C|-0-0-------0-0-------5-5-------3-3-----------|
G|-0-0-------0-0-------5-5-------3-3-----------|
C|-0-0-------0-0-------5-5-------3-3-----------|

[Verse Variation] 

Guitar 1 (repeat as needed):
C|-----------------|
G|-----------------|
F|-7-7-7-7-7-7-7-7-|
C|-----------------|
G|-5-5-5-5-5-5-5-5-|
C|-----------------|


[Verse Variation] 

Guitar 2
C|------------------------------------------------------------------------|
G|------------------------------------------------------------------------|
F|------------------------------------------------------------------------|
C|-0-0-------0-0----0-0-------0-0----5-5-------5-5----3-3-------2-2-------|
G|-0-0-------0-0----0-0-------0-0----5-5-------5-5----3-3-------2-2-------|
C|-0-0-------0-0----0-0-------0-0----5-5-------5-5----3-3-------2-2-------|


[Pre-Chorus] 

Guitar 1
C|---------------------------------------------------|
G|---------------------------------------------------|
F|-6/7-7-7-7-7-7-7-7-7-7-7-7-7-7-7-7-7-7-7-7-7-7-7-7-|
C|---------------------------------------------------|   
G|---------------------------------------------------|
C|---------------------------------------------------|(x5)

C|---------------------------------------------------|
G|---------------------------------------------------|
F|-6-6-6-6-6-6-6-6-6-6-6-6-6-6-6-6-6-6-6-6-6-6-6-6-6-|
C|---------------------------------------------------|
G|---------------------------------------------------|
C|---------------------------------------------------|


[Pre-Chorus] 

Guitar 2
C|------------------------------------------------------------------------------------------|
G|------------------------------------------------------------------------------------------|
F|-7-7----7-7----7-7-7----7-7----7-7----7-7-7----7-7----7-7----7-7-7----7-7----7-7----7-7-7-|
C|-8-8----8-8----8-8-8----5-5----5-5----5-5-5----0-0----0-0----0-0-0----9-9----9-9----9-9-9-|
G|-8-8----8-8----8-8-8----5-5----5-5----5-5-5----0-0----0-0----0-0-0----9-9----9-9----9-9-9-|
C|-8-8----8-8----8-8-8----5-5----5-5----5-5-5----0-0----0-0----0-0-0----9-9----9-9----9-9-9-|

C|--------------------------------------------|
G|--------------------------------------------|
F|-7-7----7-7----7-7-7----6-6----6-6----6-6-6-|
C|-8-8----8-8----8-8-8----7-7----7-7----7-7-7-|
G|-8-8----8-8----8-8-8----7-7----7-7----7-7-7-|
C|-8-8----8-8----8-8-8----7-7----7-7----7-7-7-|


[Chorus 2] 

Guitar 1
C|-------------------------------------------------------------------------------|
G|-------------------------------------------------------------------------------|
F|-2----2-2-2-2----2-2-2-2----2-2-2-2----2-2-2-4----4-4-4-4----15-15-15-15-14-14-|
C|-0----0-0-0-0----0-0-0-0----0-0-0-0----0-0-0-0----0-0-0-0----------------------|     
G|-0----0-0-0-0----0-0-0---------------------------------------13-13-13-13\12-12-|
C|-0----0-0-0-0----0-0-0-4----4-4-4-4----4-4-4-5----5-5-5-5----------------------|(x2)

Chorus 2 Guitar 2:

C|-------------------------------------------------------------------------|
G|-------------------------------------------------------------------------|
F|-2----2-2-2-2----2-2-2-2----2-2-2-2----2-2-2-4----4-4-4-4----------------|
C|-0----0-0-0-0----0-0-0-0----0-0-0-0----0-0-0-0----0-0-0-0----8-8-8-8-7-7-|     
G|-0----0-0-0-0----0-0-0---------------------------------------8-8-8-8-7-7-|
C|-0----0-0-0-0----0-0-0-4----4-4-4-4----4-4-4-5----5-5-5-5----8-8-8-8-7-7-|(x2)


[Chorus 2 Variation] 

Guitar 1
C|----------------------------------------------------|
G|----------------------------------------------------|
F|-19----14----18----14----19----14----15-15-15-17-19-|
C|----x4----x4----x4----x4----x4----x4----------------|
G|-17----12----16----12----17----12----13-13-13-15/17-|
C|----------------------------------------------------|

C|-------------------------------------|
G|-------------------------------------|
F|-19----14----18----14----19----14----|
C|----x4----x4----x4----x4----x4----x4-|
G|-17----12----16----12----17----12----|
C|-------------------------------------|


[Chorus 2 Variation] 

Guitar 2
C|-------------------------------------------------------------------------|
G|-------------------------------------------------------------------------|
F|-2----2-2-2-2----2-2-2-2----2-2-2-2----2-2-2-4----4-4-4-4----------------|
C|-0----0-0-0-0----0-0-0-0----0-0-0-0----0-0-0-0----0-0-0-0----8-8-8-8-7-7-|     
G|-0----0-0-0-0----0-0-0---------------------------------------8-8-8-8-7-7-|
C|-0----0-0-0-0----0-0-0-4----4-4-4-4----4-4-4-5----5-5-5-5----8-8-8-8-7-7-|(x2)


[Solo] 

Guitar 1
C|---------------------------------------------------------------------------------------------------|
G|---------------------------------------------------------------------------------------------------|
F|--------7-9-10-12b14-12b14----12b14-12p10h12----10-9-10-9-10-10-9-------10-9-10-9-10-10-9----------|
C|-7-8-10-----------------------------------------------------------10----------------------10/12----|
G|---------------------------------------------------------------------------------------------------|
C|---------------------------------------------------------------------------------------------------|

C|---------------------------------15p14r0---------15p14r0---------15p14r0---------15p14r0-15b17-|
G|-------------------------17p15r0---------17p15r0---------17p15r0---------17p15r0---------------|
F|----------12-14-15-17--------------------------------------------------------------------------|
C|-12-14-15--------------------------------------------------------------------------------------|
G|-----------------------------------------------------------------------------------------------|
C|-----------------------------------------------------------------------------------------------|

C|-15-14-15-14-15-15p14-------------------------------------------------------|
G|----------------------15----------------------------------------18b20-------|
F|-------------------------------------17----------17-17b19-17b19-------------|
C|----------------------------14-15-17----14-15-17----------------------------|
G|----------------------------------------------------------------------------|
C|----------------------------------------------------------------------------|


[Solo (Background)] 

Guitar 2
C|-------------------------------------------------------------------------------------------------------|
G|-------------------------------------------------------------------------------------------------------|
F|-------------------------------------------------------------------------------------------------------|
C|-0-0----0-0----0-0-0----5-5----5-5----5-5-5----10-10----10-10----10-10-10----0-0----0-0----0-0-0-0-0-0-|
G|-0-0----0-0----0-0-0----5-5----5-5----5-5-5----10-10----10-10----10-10-10----0-0----0-0----0-0-0-0-0-0-|
C|-0-0----0-0----0-0-0----5-5----5-5----5-5-5----10-10----10-10----10-10-10----0-0----0-0----0-0-0-0-0-0-|

C|---------------------------------------------------------------------------------------------|
G|---------------------------------------------------------------------------------------------|
F|---------------------------------------------------------------------------------------------|
C|-0-0----0-0----0-0-0----5-5----5-5--5-5-5-5-5--10-10----10-10----10-10-10----8-8----8-8----8-|
G|-0-0----0-0----0-0-0----5-5----5-5--5-5-5-5-5--10-10----10-10----10-10-10----8-8----8-8----8-|
C|-0-0----0-0----0-0-0----5-5----5-5--5-5-5-5-5--10-10----10-10----10-10-10----8-8----8-8----8-|


[End Chorus]

C|-------------------------------------------------------|
G|-------------------------------------------------------|
F|--------2-2--------7-7-7-7-7-7-7-7-----7-7-7-7-7-7-7-7-|
C|-0-0----0-0----5-5-----------------5-5-----------------|       
G|-0-0-----------5-5-5-5-5-5-5-5-5-5-5-5-5-5-5-5-5-5-5-5-|
C|-0-0----4-4----5-5-----------------5-5-----------------|(x2)

C|-----------------------------------|
G|-----------------------------------|
F|-----7-7-7-7-7-7-7-7-----7-7-7-7-7-|
C|-0-0-----------------0-0-----------|
G|-0-0-5-5-5-5-5-5-5-5-0-0-5-5-5-5-5-|
C|-0-0-----------------0-0-----------|(x2)

C|-0-0----|
G|-0-0----|
F|-2-2----|
C|-0-0----|      
G|-0-0----|
C|-0-0----|(x5)


************************************

| x  Dead note
| h  Hammer-on
| p  Pull-off
| r  Release
| b  Bend
| /  Slide up
| \  Slide down

************************************
Suggest correction
Give kudos to tab author, rate the tab!
1 2 3 4 5
comments
print report bad tab
guest
You may want to rate the tab now too:
select rating
Wanna post a correction for this tab? Suggest correction