Oops, an error
Loading. Please wait.

Woo Woo Tab

version 1
version 1

Whole song

Interactive

4,215 views 9 this week
1 commentread comment
1 2 3 4 5
excellent!
x 4
add to favorites
launch autoscroll
font size
0
reset
how to read this tab
guitar tuner
Tab Pro tools
  • play this tab
  • loop segment
  • change instrument
  • show fretboard
  • metronome
Autoscroll
slow
fast
+/-
esc
set tempo
stop
Contributor
Difficulty
Tuning
novice
C# G# C# F# A# D#
#----------------------------------PLEASE NOTE---------------------------------#
#This file is the author's own work and represents their interpretation of the #
#song. You may only use this file for private study, scholarship, or research. #
#------------------------------------------------------------------------------##

Woo Woo - Biffy Clyro - Opposites

Tabbed By: Matthew O'Rourke

Tuning: Drop C# (C# G# C# F# A# D#)


Verse

  Gtr I
  E E   E E E E E E E E E E E E E E E E   E E E E E E E E E E E E E E E E
|-----|---------------------------------|-----------------------------------|
|-----|---------------------------------|-----------------------------------|
|-----|---------------------------------|-----------------------------------|
|-7-7-|-7-7-7-7-7-7-7-7-7-7-7-7-7-7-7-7-|-7-7-7-7-7-7-7-7-7-7-7-7-7-7-7-7---|
|-7-7-|-7-7-7-7-7-7-7-7-7-7-7-7-7-7-7-7-|-7-7-7-7-7-7-7-7-7-7-7-7-7-7-7-7---|
|-7-7-|-7-7-7-7-7-7-7-7-7-7-7-7-7-7-7-7-|-7-7-7-7-7-7-7-7-7-7-7-7-7-7-7-7---|


  Gtr II
  Q     E  Q   E  E Q.   E  Q   E  E  Q.
|----|------------------------------------|
|----|-13-12--13-12-----13-12--13-12------|
|----|--------------9----------------14---|
|----|------------------------------------|
|----|------------------------------------|
|----|------------------------------------|


   E  Q   E  E Q.   E  Q   E  E  Q.
|--------------------------------------|
|-13-12--13-12-----13-12--13-12--------|
|--------------9----------------14-----|
|--------------------------------------|
|--------------------------------------|
|--------------------------------------|


  Gtr I
  Q  E E E E E Q.  E E E E E E   +Q  E E E E E Q.   E E E E E E
|------------------------------|-----------------------------------|
|------------------------------|-----------------------------------|
|------------------------------|-----------------------------------|
|-0--7-6-0-7-6-4---7-6-0-7-6-2-|-(2)-7-6-0-7-6-4----7-6-0-7-6-7----|
|------------------------------|------------------------------7----|
|------------------------------|------------------------------7----|



  Gtr I
  E E E E E E E E E E E E E E E E   E E E E E E E E E E E E E E E E
|---------------------------------|-----------------------------------|
|---------------------------------|-----------------------------------|
|---------------------------------|-----------------------------------|
|-7-7-7-7-7-7-7-7-7-7-7-7-7-7-7-7-|-7-7-7-7-7-7-7-7-7-7-7-7-7-7-7-7---|
|-7-7-7-7-7-7-7-7-7-7-7-7-7-7-7-7-|-7-7-7-7-7-7-7-7-7-7-7-7-7-7-7-7---|
|-7-7-7-7-7-7-7-7-7-7-7-7-7-7-7-7-|-7-7-7-7-7-7-7-7-7-7-7-7-7-7-7-7---|


  Gtr II
   E  Q   E  E Q.    E  Q   E  E  Q.      E  Q   E  E Q.    E  Q   E  E  Q.
|--------------------------------------|---------------------------------------|
|-13-12--13-12------13-12--13-12-------|-13-12--13-12------13-12--13-12--------|
|--------------9-----------------14----|--------------9-----------------14-----|
|--------------------------------------|---------------------------------------|
|--------------------------------------|---------------------------------------|
|--------------------------------------|---------------------------------------|

  Gtr I
  Q  E E E E E Q.   E E E E E E +Q     E E E E E Q.   Q  E E E E
|------------------------------------|-----------------------------|
|------------------------------------|-----------------------------|
|------------------------------------|-----------------------------|
|-0--7-6-0-7-6-4----7-6-0-7-6-2-(2)--|-7-6-0-7-6-4----7--7-7-7-7---|
|------------------------------------|----------------7--7-7-7-7---|
|------------------------------------|----------------7--7-7-7-7---|


Chorus

  Gtr I
  W         W           +Q    W         W.   +Q
|---------------------------|--------------------|
|---------------------------|--------------------|
|---------------------------|-----------7----(7)-|
|-7---------9-----------(9)-|-4---------7----(7)-|
|-7---------9-----------(9)-|-4---------5----(5)-|
|-7---------9-----------(9)-|-4------------------|


  W         W        +Q     W         W.            +W
|-------------------------|-------------------------------|
|-------------------------|-------------------------------|
|-------------------------|-----------7-------------(7)---|
|-7---------9--------(9)--|-4---------7-------------(7)---|
|-7---------9--------(9)--|-4---------5-------------(5)---|
|-7---------9--------(9)--|-4-----------------------------|


  Gtr II
  Q   E Q   E  Q  Q   E Q   E  Q   Q    Q   E Q   E  Q   Q   E Q   E  Q    Q
|-------------------------------------|---------------------------------------|
|----10----10-12-----10----10-12--10--|----10----10-12------10----10-12---10--|
|-------9---------------9-------------|-------9----------------9--------------|
|-------------------------------------|---------------------------------------|
|-------------------------------------|---------------------------------------|
|-------------------------------------|---------------------------------------|


  Q   E Q   E  Q  Q   E Q   E  Q   Q   Q   E Q   E  Q  Q   E Q   E   Q   Q
|------------------------------------|----------------------------------------|
|----10----10-12-----10----10-12--10-|----10----10-12-----10----10--12--10----|
|-------9---------------9------------|-------9---------------9----------------|
|------------------------------------|----------------------------------------|
|------------------------------------|----------------------------------------|
|------------------------------------|----------------------------------------|


Break

 6/4
  Gtr I
  Q  Q  Q  Q  Q  Q    Q  Q  Q  Q  Q  Q
|-------------------|-------------------|
|-------------------|-------------------|
|-------------------|-------------------|
|-4--------4--------|-4--------4--------|
|-4--------4--------|-4--------4--------|
|-4--------4--------|-4--------4--------|


  Q  Q  Q   Q  Q  Q    Q  Q  Q   Q  Q  Q
|--------------------|--------------------|
|--------------------|--------------------|
|--------------------|--------------------|
|-0---------0--------|-0---------0--------|
|-0---------0--------|-0---------0--------|
|-0---------0--------|-0---------0--------|


  Q  Q  Q   Q  Q  Q    Q  Q  Q   Q  Q  Q
|--------------------|--------------------|
|--------------------|--------------------|
|--------------------|--------------------|
|-9---------9--------|-9---------9--------|
|-9---------9--------|-9---------9--------|
|-9---------9--------|-9---------9--------|


   Q  Q  Q    Q  Q  Q     Q  Q  Q    Q  Q  Q
|----------------------|------------------------|
|----------------------|------------------------|
|----------------------|------------------------|
|-11---------11--------|-11---------11----------|
|-11---------11--------|-11---------11----------|
|-11---------11--------|-11---------11----------|


  Q  Q  Q  Q  Q  Q    Q  Q  Q  Q  Q  Q
|-------------------|-------------------|
|-------------------|-------------------|
|-------------------|-------------------|
|-4--------4--------|-4--------4--------|
|-4--------4--------|-4--------4--------|
|-4--------4--------|-4--------4--------|


  Q  Q  Q  Q  Q  Q    Q  Q  Q  Q  Q  Q
|-------------------|---------------------|
|-------------------|---------------------|
|-------------------|---------------------|
|-0--------0--------|-0--------0----------|
|-0--------0--------|-0--------0----------|
|-0--------0--------|-0--------0----------|


  Q  Q  Q  Q  Q  Q    Q  Q  Q  Q  Q  Q
|-------------------|-------------------|
|-------------------|-------------------|
|-------------------|-------------------|
|-9--------9--------|-9--------9--------|
|-9--------9--------|-9--------9--------|
|-9--------9--------|-9--------9--------|


   Q  Q  Q   Q  Q  Q     Q  Q  Q   Q  Q  Q
|---------------------|-----------------------|
|---------------------|-----------------------|
|---------------------|-----------------------|
|-11--------11--------|-11--------11----------|
|-11--------11--------|-11--------11----------|
|-11--------11--------|-11--------11----------|


  Gtr II
  Q   Q   Q  Q  Q  Q    Q  Q  Q  Q  Q   Q
|---------------------|--------------------|
|----10--10-----9--9--|----7--7-----9--10--|
|---------------------|--------------------|
|---------------------|--------------------|
|---------------------|--------------------|
|---------------------|--------------------|


  Q   Q   Q  Q  Q  Q    Q  Q  Q  Q  Q   Q
|---------------------|-------------------|
|----10--10-----9--9--|----7--7-----9--10-|
|---------------------|-------------------|
|---------------------|-------------------|
|---------------------|-------------------|
|---------------------|-------------------|


  Q   Q   Q  Q  Q  Q    Q  Q  Q  Q  Q   Q    Q   Q   Q  Q  Q  Q
|---------------------|--------------------|---------------------|
|----10--10-----9--9--|----7--7-----9--10--|----10--10-----9--9--|
|---------------------|--------------------|---------------------|
|---------------------|--------------------|---------------------|
|---------------------|--------------------|---------------------|
|---------------------|--------------------|---------------------|


   S S  S S  S S  S S  S S  S S  H   E  E
|--------------------------------------------|
|-10p9h10p9h10p9h10p9h10p9h10p9S12--10--9----|
|--------------------------------------------|
|--------------------------------------------|
|--------------------------------------------|
|--------------------------------------------|


  Q   Q   Q  Q  Q  Q    Q  Q  Q  Q  Q   Q
|-----9---9-----7--7--|----5--5-----7---9--|
|----10--10-----9--9--|----7--7-----9--10--|
|---------------------|--------------------|
|---------------------|--------------------|
|---------------------|--------------------|
|---------------------|--------------------|


  Q   Q   Q  Q  Q  Q    Q  Q  Q  Q  Q   Q
|----10--10-----9--9--|----7--7-----9--10----|
|----10--10-----9--9--|----7--7-----9--10----|
|---------------------|----------------------|
|---------------------|----------------------|
|---------------------|----------------------|
|---------------------|----------------------|


  Q   Q   Q  Q  Q  Q    Q  Q  Q  Q  Q   Q
|----10--10-----9--9--|----7--7-----9--10--|
|----10--10-----9--9--|----7--7-----9--10--|
|---------------------|--------------------|
|---------------------|--------------------|
|---------------------|--------------------|
|---------------------|--------------------|


  Q   Q   Q  Q  Q  Q    Q  Q  Q  Q  Q   Q
|-----9---9-----7--7--|----5--5-----7---9----|
|----10--10-----9--9--|----7--7-----9--10----|
|---------------------|----------------------|
|---------------------|----------------------|
|---------------------|----------------------|
|---------------------|----------------------|


Break end (Just gtr II)

  Gtr II
  Q   Q   Q  Q  Q  Q    Q  Q  Q  Q  Q   Q
|---------------------|--------------------|
|----10--10-----9--9--|----7--7-----9--10--|
|---------------------|--------------------|
|-0----------0--------|-0--------0---------|
|---------------------|--------------------|
|---------------------|--------------------|


  Q   Q   Q  Q  Q  Q    Q  Q  Q  Q  Q   Q
|---------------------|----------------------|
|----10--10-----8--8--|----6--6-----8--10----|
|---------------------|----------------------|
|-0----------0--------|-0--------0-----------|
|---------------------|----------------------|
|---------------------|----------------------|


Song order:

Verse
Chorus
Verse
Chorus
Break
Break end
Chorus


Duration Legend
---------------
W - whole; H - half; Q - quarter; E - 8th; S - 16th; T - 32nd; X - 64th; a - acciaccatura
+ - note tied to previous; . - note dotted; .. - note double dotted
Uncapitalized letters represent notes that are staccato (1/2 duration)
Irregular groupings are notated above the duration line
Duration letters will always appear directly above the note/fret number it represents the
duration for.  Duration letters with no fret number below them represent rests.  Multi-
bar rests are notated in the form Wxn, where n is the number of bars to rest for.  Low
melody durations appear below the staff

Tablature Legend
----------------
 /\  - slide into or out of (from/to "nowhere")
 s   - legato slide
 S   - shift slide

Misc Legend
-----------
 |  - bar
||  - double bar
||o - repeat start
o|| - repeat end
*|  - double bar (ending)
 :  - bar (freetime)
 $  - Segno
 &  - Coda
Tempo markers -  = BPM(8/16=s8/s16), where s8 = swing 8ths, s16 = swing 16ths


***************************************************************************************
* Generated using Power Tab Editor by Brad Larsen - http://powertab.guitarnetwork.org *
***************************************************************************************
comments
print report bad tab
1 comment total.
0 reply
the_czar_ wrote on February 12 2013, 01:44 pm

For the verse high riff I think he plays the 9 on the A# 5, and the 14 on the A# 10. Fantastic tab otherwise, cheers.

I want to post or [tab]
guest
You may want to rate the tab now too:
select rating
Please do not post tabs as comments. Select "correction" instead!