Oops, an error
Loading. Please wait.

If You intro tab

version 2
version 2

Intro

Whole song

Interactive

3,542 views 15 this week
3 commentsread comments
1 2 3 4 5
x 3
add to favorites
×
Save as Personal and add changes to this tab that will be seen only by you. Learn more ›
×
You can save this tab as Personal to edit and correct it or add notes. All changes will be seen only by you. Learn more »
launch autoscroll
font size
0
reset
how to read this tab
guitar tuner
edit
Autoscroll
slow
fast
+/-
esc
set tempo
stop
Author
Difficulty
Unregistered
BigBang If You Intro

I don't know whether it's right or wrong..
This is my first tab, I made this fully by my ear so if there are any mistakes, please 
tell me :D
If you have any comments, please comment XD. NO HATE~

E ------6-------6-------6-------4-------3-------3-------3--------|
B --------6-------6-------6-------6-------4-------4-----4--------|
G -------6-6-----6-6-----6-6-----6-6-----3-3-----3-3----3--------|
D ---------------------------------------------------------------|
A ---------------------------------------------------------------|
E ---------------------------------------------------------------|

E --------------2-------2-------5-------5-------4-------4--------|
B ------4---6------2-------2-------7-------7-------6-------6-----|
G ------3---------3-3-----3-3-----6-6-----6-6-----6-6-----6-6----|
D ---------------------------------------------------------------|
A ---------------------------------------------------------------|
E ---------------------------------------------------------------|


E -4-------------------------------------------------------------|
B -6-------------------------------------------------------------|
G -6-------------------------------------------------------------|
D ---------------------------------------------------------------|
A ---------------------------------------------------------------|
E ---------------------------------------------------------------|

You can change the first Tab into:

E ------6-------6-------6-------4-------3-------3-------3--------|
B ----------------------------------------4-------4-----4--------|
G --------6-------6------6------6--------3-3-----3-3----3--------|
D -------8-8-----8-8----8-8----8-8-------------------------------|
A ---------------------------------------------------------------|
E ---------------------------------------------------------------|

This one is used in the real tab
Suggest correction
Creating personal tab
Creating personal tab
You can edit any tab online and save it as your Personal.

You can edit, replace or remove any tab part or add personal notes – all changes will be seen only by you.

Personal tabs can be accessed anytime from any device, even offline.
Learn more »
Give kudos to tab author, rate the tab!
1 2 3 4 5
comments
print report bad tab
3 comments total.
0 reply
kelbyluk1 65 Jul 16, 2015 02:14 AM

Lack of accuracy. The tab is not even tabbed properly, it is barely accurate and very far off what it should be. Completely wrong chord and tune altogether

0 reply
issahs12mintyoreos 10 Jun 13, 2017 11:33 AM

Your tab is amazing considering that it's only your first and that you did it by ear! Idk if you've done any more tabs other than this, but I'd recommend you learn how to write tabs properly so that other people can play it if they can't learn it by ear as well as you do. It's in the correct key btw!

guest
Wanna post a correction for this tab? Suggest correction