Oops, an error
Loading. Please wait.

If You tab

version 2
version 2

Whole song

Interactive

17,164 views 30 this week
no commentswrite comment
1 2 3 4 5
x 5
add to favorites
×
Save as Personal and add changes to this tab that will be seen only by you. Learn more ›
×
You can save this tab as Personal to edit and correct it or add notes. All changes will be seen only by you. Learn more »
launch autoscroll
font size
0
reset
how to read this tab
guitar tuner
edit
Autoscroll
slow
fast
+/-
esc
set tempo
stop
IF YOU – BIGBANG                
Guitar Tab Arrangement
Arranged by – Ki Min
Tuning- D# G# C# F# A# D# (No Capo)

[Intro]

E|-7-------7-------|-7---------------|-----------------|-----------------|
B|-----------------|---------10------|-9-------9-------|-------------7---|
G|-----7-------7---|-----7-------7---|-----9-------9---|-9-------9-------|
D|---9---9---9---9-|---9---9---9---9-|---9---9---9---9-|-----9-----9---9-|
A|-----------------|-----------------|-----------------|---7---7---------|
E|-7---------------|-----------------|-0---------------|-----------------|

E|-3-------3-------|-6-------6-------|-5-------5-------|-5---------------|
B|-----3-------3---|-----8-------8---|-----7-------7---|-7---------------|
G|---4---4---4---4-|---7---7---7---7-|---7---7---7---7-|-7---------------|
D|-5---------------|-5---------------|-----------------|-----------------|
A|-----------------|-----------------|-5---------------|-5---------------|
E|-----------------|-----------------|-----------------|-----------------|


[Verse]

E|-7-------7-------|-7---------------|-----------------|-----------------|
B|-----------------|---------10------|-8-------8-------|-10------8-------|
G|-----7-------7---|-----7-------7---|-----7-------7---|-----7-------7---|
D|---9---9---9---9-|---9---9---9---9-|---9---9---9---9-|---9---9---9---9-|
A|-----------------|-----------------|-----------------|-----------------|
E|-7---------------|-----------------|-0---------------|-----------------|

E|-----------------|-----------------|-2-------2-------|-2-------0-------|
B|-10------10------|-8-------8-------|-----3-------3---|-----3-------2---|
G|-----9-------9---|-----9-------9---|---2---2---2---2-|---2---2---2---2-|
D|---11--11--11--11|---11--11--11--11|-0---------------|-----------------|
A|-0---------------|-----------------|-----------------|---------4-------|
E|-----------------|-----------------|-----------------|-----------------|

E|-7-------7-------|-7---------------|-----------------|-----------------|
B|-----------------|---------10------|-9-------9-------|-------------7---|
G|-----7-------7---|-----7-------7---|-----9-------9---|-9-------9-------|
D|---9---9---9---9-|---9---9---9---9-|---9---9---9---9-|-----9-----9---9-|
A|-----------------|-----------------|-----------------|---7---7---------|
E|-7---------------|-----------------|-0---------------|-----------------|

E|-3-------3-------|-6-------6-------|-5-------5-------|-5-------5-------|
B|-----3-------3---|-----8-------8---|-----7-------7---|-----7-------7---|
G|---4---4---4---4-|---7---7---7---7-|---7---7---7---7-|---7---7---7---7-|
D|-5---------------|-5---------------|-----------------|-----------------|
A|-----------------|-----------------|-5---------------|-----------------|
E|-----------------|-----------------|-----------------|-----------------|

E|-7-------7-------|-7---------------|-----------------|-----------------|
B|-----------------|---------10------|-8-------8-------|-10------8-------|
G|-----7-------7---|-----7-------7---|-----7-------7---|-----7-------7---|
D|---9---9---9---9-|---9---9---9---9-|---9---9---9---9-|---9---9---9---9-|
A|-----------------|-----------------|-----------------|-----------------|
E|-7---------------|-----------------|-0---------------|-----------------|

E|-----------------|-----------------|-2-------2-------|-2-------0-------|
B|-10------10------|-8-------8-------|-----3-------3---|-----3-------2---|
G|-----9-------9---|-----9-------9---|---2---2---2---2-|---2---2---2---2-|
D|---11--11--11--11|---11--11--11--11|-0---------------|-----------------|
A|-0---------------|-----------------|-----------------|---------4-------|
E|-----------------|-----------------|-----------------|-----------------|

E|-7-------7-------|-7---------------|-----------------|-----------------|
B|-----------------|---------10------|-9-------9-------|-------------7---|
G|-----7-------7---|-----7-------7---|-----9-------9---|-9-------9-------|
D|---9---9---9---9-|---9---9---9---9-|---9---9---9---9-|-----9-----9---9-|
A|-----------------|-----------------|-----------------|---7---7---------|
E|-7---------------|-----------------|-0---------------|-----------------|

E|-3-------3-------|-6-------6-------|-5-------5-------|-5---------------|
B|-----3-------3---|-----8-------8---|-----7-------7---|-7---------------|
G|---4---4---4---4-|---7---7---7---7-|---7---7---7---7-|-7---------------|
D|-5---------------|-5---------------|-----------------|-----------------|
A|-----------------|-----------------|-5---------------|-5---------------|
E|-----------------|-----------------|-----------------|-----------------|


[Chorus]

E|-7-------7-------|-7-------10--7---|-5-------5-------|-5-------10------|
B|-----8-------8---|-----8-----------|-----7-------7---|-----7-------10--|
G|---7---7---7---7-|---7---7---7---7-|---7---7---7---7-|---7---7---7---7-|
D|-----------------|-----------------|-----------------|-----------------|
A|-10--------------|-----------------|-5---------------|-----------------|
E|-----------------|-----------------|-----------------|-----------------|

E|-6-------6-------|-9-------9-------|-7-------7-------|-5-------2-------|
B|-----7-------7---|-----7-------7---|-----------------|-----------------|
G|---6---6---6---6-|---6---6---6---6-|-----7-------7---|-----6-------3---|
D|-----------------|-----------------|---9---9---9---9-|---7---7---4---4-|
A|-9---------------|-----------------|-----------------|-----------------|
E|-----------------|-----------------|-7---------------|-5-------2-------|

E|-7-------7-------|-7-------10--7---|-5-------5-------|-5-------10------|
B|-----8-------8---|-----8-----------|-----7-------7---|-----7-------10--|
G|---7---7---7---7-|---7---7---7---7-|---7---7---7---7-|---7---7---7---7-|
D|-----------------|-----------------|-----------------|-----------------|
A|-10--------------|-----------------|-5---------------|-----------------|
E|-----------------|-----------------|-----------------|-----------------|

E|-6-------6-------|-9-------9-------|-7-------7-------|-----------------|
B|-----7-------7---|-----7-------7---|-----8-------8---|-8-------7-------|
G|---6---6---6---6-|---6---6---6---6-|---7---7---7---7-|-----7-----------|
D|-----------------|-----------------|-----------------|---9---9-----9---|
A|-9---------------|-----------------|-10--------------|-10--------10--10|
E|-----------------|-----------------|-----------------|-----------------|

E|-----------------|-7-------10------|-7-------7-------|-6-------6-------|
B|---------9-------|-------------9---|-----8-------8---|-----8-------8---|
G|-9-----------9---|-----9-----9---9-|---7---7---7---7-|---7---7---7---7-|
D|-----9-----9---9-|---9---9---------|-----------------|-5---------------|
A|---7---7---------|-----------------|-10--------------|-----------------|
E|-0---------------|-----------------|-----------------|-----------------|

E|-5-------5-------|-5---------------|-----------------|-----------------|
B|-----7-------7---|-7---------------|-----------------|-----------------|
G|---7---7---7---7-|-7---------------|-----------------|-----------------|
D|-----------------|-----------------|-----------------|-----------------|
A|-5---------------|-5---------------|-----------------|-----------------|
E|-----------------|-----------------|-----------------|-----------------|


[Bridge]

E|-2-------0-------|---------0-------|-----------------|-3---------------|
B|-----3-------2---|-2-----------2---|-3-------3-------|-3---------------|
G|---2---2---2---2-|-----3-----2---2-|-----4-------4---|-4---------------|
D|-0---------------|---4---4---------|---5---5---5---5-|-----------------|
A|---------0-------|-2-------0-------|-----------------|-----------------|
E|-----------------|-----------------|-3---------------|-3---------------|

E|-----------------|-7---------------|-----------------|-----------------|
B|-8-------7-------|---------10------|-8-------8-------|-8---------------|
G|-----9-------7---|-----8-------8---|-----9-------9---|-9---------------|
D|---9---9---7---7-|---9---9---9---9-|---9---9---9---9-|-9---------------|
A|-7---------------|-----------------|-7---------------|-7---------------|
E|---------10------|-7---------------|-----------------|-----------------|

E|-3-------3-------|-6-------6-------|-5-------5-------|-----------------|
B|-----3-------3---|-----8-------8---|-----7-------7---|-7-------7-------|
G|---4---4---4---4-|---7---7---7---7-|---7---7---7---7-|-----7-------7---|
D|-----------------|-5---------------|-----------------|---7---7---7---7-|
A|-----------------|-----------------|-5---------------|-5---------------|
E|-3---------------|-----------------|-----------------|-----------------|

E|-----------------|-----------------|-2---------------|-----------------|
B|-3-------3-------|-5-------5-------|-3---------------|-----------------|
G|-----4-------4---|-----6-------6---|-2---------------|-----------------|
D|---5---5---5---5-|---8---8---8---8-|-0---------------|-----------------|
A|-----------------|-0---------------|-----------------|-----------------|
E|-3---------------|-----------------|-----------------|-----------------|


[Chorus]
(option 2)

*this is just an optional way of playing the chorus part. I personally find
the first option easier to play although there are more slide transitions

E|-----------------|---------10------|-----------------|---------10------|
B|-12------12------|-12----------12--|-10------10------|-10----------10--|
G|-----12------12--|-----12----------|-----11------11--|-----11----------|
D|---12--12--12--12|---12--12--12--12|---12--12--12--12|---12--12--12--12|
A|-10--------------|-----------------|-----------------|-----------------|
E|-----------------|-----------------|-10--------------|-----------------|

E|-----------------|-9-------9-------|-7-------7-------|-5-------2-------|
B|-11------11------|-----------------|-----------------|-----------------|
G|-----11------11--|-----11------11--|-----7-------7---|-----5-------3---|
D|---11--11--11--11|---11--11--11--11|---9---9---9---9-|---7---7---4---4-|
A|-9---------------|-----------------|-----------------|-----------------|
E|-----------------|-----------------|-7---------------|-5-------2-------|

E|-----------------|---------10------|-----------------|---------10------|
B|-12------12------|-12----------12--|-10------10------|-10----------10--|
G|-----12------12--|-----12----------|-----11------11--|-----11----------|
D|---12--12--12--12|---12--12--12--12|---12--12--12--12|---12--12--12--12|
A|-10--------------|-----------------|-----------------|-----------------|
E|-----------------|-----------------|-10--------------|-----------------|

E|-----------------|-9-------9-------|-----------------|-----------------|
B|-11------11------|-----------------|-----------------|-----------------|
G|-----11------11--|-----11------11--|-----------------|-----------------|
D|---11--11--11--11|---11--11--11--11|-----------------|-----------------|
A|-9---------------|-----------------|-----------------|-----------------|
E|-----------------|-----------------|-----------------|-----------------|

            
            
Suggest correction
Creating personal tab
Creating personal tab
You can edit any tab online and save it as your Personal.

You can edit, replace or remove any tab part or add personal notes – all changes will be seen only by you.

Personal tabs can be accessed anytime from any device, even offline.
Learn more »
comments
print report bad tab
guest
You may want to rate the tab now too:
select rating
Wanna post a correction for this tab? Suggest correction