Oops, an error
Loading. Please wait.

If You tab

version 4
version 4

Whole song

Interactive

523 views 6 this week
no commentswrite comment
1 2 3 4 5
x 3
add to favorites
×
Save as Personal and add changes to this tab that will be seen only by you. Learn more ›
×
You can save this tab as Personal to edit and correct it or add notes. All changes will be seen only by you. Learn more »
launch autoscroll
font size
0
reset
how to read this tab
guitar tuner
edit
Autoscroll
slow
fast
+/-
esc
set tempo
stop
[Intro]

 Em                                   A
e|-0--------0--------0-------------------------------------------------------|
B|----------------------------3---------2---------2-------2------------0-----|
G|-----0--------0--------0--------0---------2---------2-------2---2----------|
D|---2---2----2---2----2---2----2---2-----2---2-----2---2---2---2---2----2---|
A|--------------------------------------0------------------------------------|
E|-0-------------------------------------------------------------------------|

   C               Cm                 G                   strum G
e|---------------------------------------------------------------------------|
B|-1-------1-------4---------4--------3---------3----------------------------|
G|-----0-------0--------5--------5----------0-------0------------------------|
D|---2---2---2---2----5---5----5---5------0---0---0--------------------------|
A|-3---------------3---------------------------------------------------------|
E|------------------------------------3--------------------------------------|


[Verse]

   Em                                  Am7
e|-0--------0--------0-------------------------------------------------------|
B|----------------------------3--------1--------1--------3--------1----------|
G|------0-------0--------0--------0--------0--------0--------0--------0------|
D|----2---2---2---2----2---2----2---2----2---2----2---2----2---2----2---2----|
A|-------------------------------------0-------------------------------------|
E|-0-------------------------------------------------------------------------|
   D                 D7                 G                            D/F#
e|---------------------------------------------------------------------------|
B|-3--------3--------1--------1---------0----------0--------0----------------|
G|------2-------2--------2--------2----------0---------0--------0----2-------|
D|----0---0---0---0----0---0----0---0------0---0-----0---0----0---0------0---|
A|---------------------------------------------------------------------0-----|
E|-2------------------------------------3----------------------------2-------|
   Em                                   A
e|-0--------0--------0-------------------------------------------------------|
B|----------------------------3---------2---------2-------2------------0-----|
G|-----0--------0--------0--------0---------2---------2-------2---2----------|
D|---2---2----2---2----2---2----2---2-----2---2-----2---2---2---2---2----2---|
A|--------------------------------------0------------------------------------|
E|-0-------------------------------------------------------------------------|
   C               Cm                 G                          D/F#
e|---------------------------------------------------------------------------|
B|-1-------1-------4---------4--------3---------3--------3-------3-----------|
G|-----0-------0--------5--------5----------0-------0--------0--------2------|
D|---2---2---2---2----5---5----5---5------0---0---0---0----0---0----0--------|
A|-3---------------3---------------------------------------------------------|
E|------------------------------------3--------------------------2-----------|

   Em                                  Am7
e|-0--------0--------0-------------------------------------------------------|
B|----------------------------3--------1--------1--------3--------1----------|
G|------0-------0--------0--------0--------0--------0--------0--------0------|
D|----2---2---2---2----2---2----2---2----2---2----2---2----2---2----2---2----|
A|-------------------------------------0-------------------------------------|
E|-0-------------------------------------------------------------------------|

 D                 D7                 G                            D/F#
e|---------------------------------------------------------------------------|
B|-3--------3--------1--------1---------0----------0--------0----------------|
G|------2-------2--------2--------2----------0---------0--------0----2-------|
D|----0---0---0---0----0---0----0---0------0---0-----0---0----0---0------0---|
A|---------------------------------------------------------------------0-----|
E|-2------------------------------------3----------------------------2-------|

  Em                                   A
e|-0--------0--------0-------------------------------------------------------|
B|----------------------------3---------2---------2-------2------------0-----|
G|-----0--------0--------0--------0---------2---------2-------2---2----------|
D|---2---2----2---2----2---2----2---2-----2---2-----2---2---2---2---2----2---|
A|--------------------------------------0------------------------------------|
E|-0-------------------------------------------------------------------------|

   C               Cm                 G                   strum G
e|---------------------------------------------------------------------------|
B|-1-------1-------4---------4--------3---------3----------------------------|
G|-----0-------0--------5--------5----------0-------0------------------------|
D|---2---2---2---2----5---5----5---5------0---0---0--------------------------|
A|-3---------------3---------------------------------------------------------|
E|------------------------------------3--------------------------------------|


[Chorus]

   C                                     G
e|-0--------0--------0--------3----0------------------------------3----------|
B|------1-------1--------1---------------3-------3-------3------------3------|
G|----0---0---0---0----0---0-----0---0-------0-------0-------0---------------|
D|-----------------------------------------0---0---0---0---0---0----0---0----|
A|-3-------------------------------------------------------------------------|
E|---------------------------------------3-----------------------------------|
   B7              B7/D#              Em                  Dm  G
e|-----------------2---------2--------0---------0----------------------------|
B|-4-------4------------0--------0------------------------3---0--------------|
G|-----2-------2------2---2----2---2-------0--------0-----2--------0---------|
D|---4---4---4---0-1---------------------2---2----2---2---3------0---0-------|
A|-2-------------------------------------------------------------------------|
E|------------------------------------0-----------------------3--------------|

   C                                     G
e|-0--------0--------0--------3----0------------------------------3----------|
B|------1-------1--------1---------------3-------3-------3------------3------|
G|----0---0---0---0----0---0-----0---0-------0-------0-------0---------------|
D|-----------------------------------------0---0---0---0---0---0----0---0----|
A|-3-------------------------------------------------------------------------|
E|---------------------------------------3-----------------------------------|
   B7               B7/D#             C
e|------------------2--------2--------0---------0----------------------------|
B|-4--------4------------0-------0---------1--------1---1---------0----------|
G|-----2--------2------2---2---2---2-----0---0----0---0------0--------0------|
D|---4---4----4---0-1--------------------------------------2---2----2---2----|
A|-2----------------------------------3--------------------------------------|
E|---------------------------------------------------------------------------|
   A                                       C                 Cm
e|--------------------0---------3--------------------------------------------|
B|-----------2-----------------------2-----1---------1-------4--------4------|
G|-2----2--------2---------2--------------------0--------0--------5-------5--|
D|----2---2----2---2-----2---2----2-----------2---2----2---2----5---5---5---5|
A|-0---------------------------------------3-----------------3---------------|
   G                 strum G
e|---------------------------------------------------------------------------|
B|-3---------3---------------------------------------------------------------|
G|------0----------0---------------------------------------------------------|
D|----0---0-----0------------------------------------------------------------|
A|---------------------------------------------------------------------------|
E|-3-------------------------------------------------------------------------|


[Bridge]

   Em       D/F#      G         D/F#       C                strum C
e|---------------------------------------------------------------------------|
B|-0------------------0--------------------1---------1-----------------------|
G|-----0----2----2---------0----2-----2---------0--------0-------------------|
D|---2---2-----0---0-----0---0------0---0-----2---2----2---------------------|
A|-----------------------------------------3---------------------------------|
E|-0--------2---------3---------2--------------------------------------------|
   Am7        G          E        E7       Am7              strum Am7
e|-----------------------0---------------------------------------------------|
B|-1----------0-------------------3--------1---------1-----------------------|
G|------0-----------0---------1-------1---------0--------0-------------------|
D|----2---2-------0---0-----2---2---2---2-----2---2----2---------------------|
A|-0---------------------------------------0---------------------------------|
E|------------3----------0---------------------------------------------------|
   C         C/G      Cm                 G
e|---------------------------------------------------------------------------|
B|-1---------1--------4--------4---------3---------3--------3----------------|
G|------0--------0---------5--------5---------0--------0--------0---0--------|
D|----2---2----2---2-----5---5----5---5-----0---0----0---0----0---0------0---|
A|-3------------------3------------------------------------------------0-----|
E|-----------3---------------------------3-----------------------------------|
   C                  Cm6                strum G
e|---------------------------------------------------------------------------|
B|---------------------------------------------------------------------------|
G|-0---------0--------2---------2--------------------------------------------|
D|------2--------2---------1--------1----------------------------------------|
A|----3---3----3---3-----3---3----3---3--------------------------------------|
E|-3------------------3------------------------------------------------------|

            
            
Suggest correction
Creating personal tab
Creating personal tab
You can edit any tab online and save it as your Personal.

You can edit, replace or remove any tab part or add personal notes – all changes will be seen only by you.

Personal tabs can be accessed anytime from any device, even offline.
Learn more »
Give kudos to tab author, rate the tab!
1 2 3 4 5
comments
print report bad tab
guest
You may want to rate the tab now too:
select rating
Wanna post a correction for this tab? Suggest correction