Oops, an error
Loading. Please wait.

Sober tab

649 views 12 this week
no commentswrite comment
1 2 3 4 5
3 more votes to show rating
add to favorites
×
Save as Personal and add changes to this tab that will be seen only by you. Learn more ›
×
You can save this tab as Personal to edit and correct it or add notes. All changes will be seen only by you. Learn more »
launch autoscroll
font size
0
reset
how to read this tab
guitar tuner
edit
Autoscroll
slow
fast
+/-
esc
set tempo
stop
Author
Difficulty
intermediate
[Intro]

  F          C          Am         G
e|----------|----------|----------|----------|
B|----------|----------|----------|----------|
G|----------|----------|----------|----------|
D|-7--7-7-5-|----------|----------|----------| 
A|----------|-7--7-7-5-|-7--7-7-8-|-7--3-3-5-|
E|----------|----------|----------|----------|

  F          C          Am         G
e|----------|----------|----------|----------|
B|----------|----------|----------|----------|
G|----------|----------|----------|----------|
D|-7--7-7-5-|----------|----------|----------| 
A|----------|-7--7-7-5-|-7--7-7-8-|-7\-------|
E|----------|----------|----------|----------|


[Verse 1]

F                 C
jebal jom jallan cheokhaji ma
     Am                    G
algo bomyeon nega jeil bulssanghae
F                     C
geurae nal deo jageuk sikyeobwa
        Am                 G
jamkkan jaemirado bol su itge
F                           C
don jjotda gwollyeok jjotda myeongyeman jjotda
Am                         G
garangiga jjijeojyeo jappajil tenikka
F                       C
sarang jota ujeong jota maldeul hajiman
Am                   G 
gagohae dwitongsuga siril tenikka

Dm         C                     Bb
Hey doctor doctor nal jom sallyeojwoyo
     Dm      F         Am
hwak dorabeorigesseunikka
              Bb              C
eoseolpeun maldeullo dulleodaeji malgo
N.C
Hear me say  ah jinja 


[Chorus]

  F          C          Am         G
e|----------|----------|----------|----------|
B|----------|----------|----------|----------|
G|----------|----------|----------|----------|
D|-7--7-7-5-|----------|----------|----------| 
A|----------|-7--7-7-5-|-7--7-7-8-|-7--3-3-5-|
E|----------|----------|----------|----------|

F             C
maenjeongsini nan himdeureo
Am        G
amugeotdo hal suga eopseo

  F          C          Am         G
e|----------|----------|----------|----------|
B|----------|----------|----------|----------|
G|----------|----------|----------|----------|
D|-7--7-7-5-|----------|----------|----------| 
A|----------|-7--7-7-5-|-7--7-7-8-|-7--3-3-5-|
E|----------|----------|----------|----------|

F             C
maenjeongsini nan jeil sirheo
Am            G
neo eopsin jamdeul suga eopseo

  F            C             Am          G
e|------------|-------------|-----------|------------|
B|------------|-------------|-----------|------------|
G|------------|-------------|-----------|------------|
D|----------7-|-5-5---------|-----------|------------|
A|-0--2--3----|-----7--5--7-|-5-5-3-2-3-|-7-7-5--3-5-|
E|------------|-------------|-----------|------------|

F           C
siganeun deoreopge an gago
Am              G
naiman deureo jugeun deut sara

  F            C             Am          G
e|------------|-------------|-----------|------------|
B|------------|-------------|-----------|------------|
G|------------|-------------|-----------|------------|
D|----------7-|-5-5---------|-----------|------------|
A|-0--2--3----|-----7--5--7-|-5-5-3-2-3-|-7-7-5--3-2-|
E|------------|-------------|-----------|------------|

F            C
hal ireun deoreopge manheunde
Am               G
hago sipeun geon hanado eopseo


[Verse 2]

F
sesangi naegen chagapgo
C
nam siseoneun ttagapji
Am
eoreun gatjiman eorinai
G
jageun kiman huljjeok jaratji
F                             
eoril jeok nangmaneun sarajin hwansang
C
nae gibuneun gwanghwalhan gwangya
Am
saramdeureun nal ihae mot hae
G
nado mollae mat gabollae
F
chwihaera chwihae cheongugeuro ga
C
kkaego namyeon jiok, eolma mot ga
Am
nan jigeum sigeumchi eomneun ppoppai
G
ireon nareul yuhokhaneun useum poktan

Dm       C                 Bb
Hey TAXI TAXI nal deryeoga jwoyo
F                    Am
igoseun neomu himdeunikka
            Bb          C           
myeochil donganmanirado sum jom swil 
N.C
su itge  ah jinja


[Chorus]

  F          C          Am         G
e|----------|----------|----------|----------|
B|----------|----------|----------|----------|
G|----------|----------|----------|----------|
D|-7--7-7-5-|----------|----------|----------| 
A|----------|-7--7-7-5-|-7--7-7-8-|-7--3-3-5-|
E|----------|----------|----------|----------|

F             C
maenjeongsini nan himdeureo
Am        G
amugeotdo hal suga eopseo

  F          C          Am         G
e|----------|----------|----------|----------|
B|----------|----------|----------|----------|
G|----------|----------|----------|----------|
D|-7--7-7-5-|----------|----------|----------| 
A|----------|-7--7-7-5-|-7--7-7-8-|-7--3-3-5-|
E|----------|----------|----------|----------|

F             C
maenjeongsini nan jeil sirheo
Am            G
neo eopsin jamdeul suga eopseo

  F            C             Am          G
e|------------|-------------|-----------|------------|
B|------------|-------------|-----------|------------|
G|------------|-------------|-----------|------------|
D|----------7-|-5-5---------|-----------|------------|
A|-0--2--3----|-----7--5--7-|-5-5-3-2-3-|-7-7-5--3-5-|
E|------------|-------------|-----------|------------|

F           C
siganeun deoreopge an gago
Am              G
naiman deureo jugeun deut sara

  F            C             Am          G
e|------------|-------------|-----------|------------|
B|------------|-------------|-----------|------------|
G|------------|-------------|-----------|------------|
D|----------7-|-5-5---------|-----------|------------|
A|-0--2--3----|-----7--5--7-|-5-5-3-2-3-|-7-7-5--3-2-|
E|------------|-------------|-----------|------------|

F            C
hal ireun deoreopge manheunde
Am               G
hago sipeun geon hanado eopseo


[Bridge]

 F                        C
Without you modeun ge duryeowo
             Gm
nega eopsin kkamkkamhan i bami chagaun sesangi
 Bb             C
nan neomu hime gyeowo
F                     C
Without you ajikdo igose hollo nama
    Gm
neo hanamaneul mitgo ireoke gidarineun naega
Bb         C
babo gatjanha No No No


[Chorus]

  F          C          Am         G
e|----------|----------|----------|----------|
B|----------|----------|----------|----------|
G|----------|----------|----------|----------|
D|-7--7-7-5-|----------|----------|----------| 
A|----------|-7--7-7-5-|-7--7-7-8-|-7--3-3-5-|
E|----------|----------|----------|----------|

 F             C
maenjeongsini nan himdeureo
 Am        G
amugeotdo hal suga eopseo

  F          C          Am         G
e|----------|----------|----------|----------|
B|----------|----------|----------|----------|
G|----------|----------|----------|----------|
D|-7--7-7-5-|----------|----------|----------| 
A|----------|-7--7-7-5-|-7--7-7-8-|-7--3-3-5-|
E|----------|----------|----------|----------|

 F             C
maenjeongsini nan jeil sirheo
 Am         G
neo eopsin jamdeul suga eopseo


[Outro]

         C          Am         G
e|----------|----------|----------|----------|
B|----------|----------|----------|----------|
G|----------|----------|----------|----------|
D|-7--7-7-5-|----------|----------|----------| x2
A|----------|-7--7-7-5-|-7--7-7-8-|-7--3-3-5-|
E|----------|----------|----------|----------|

F           C
La la la la la
         Am
la la la la
         G
la la la la la la la   

F           C
La la la la la
         Am
la la la la
         G
la la la la la la la   

N.C.
La la la la la
N.C.         
la la la la
N.C.         
la la la la la la la   

N.C.
La la la la la
N.C.         
la la la la
N.C.         
la la la la la la la  


*******************
| \   Slide down                                    
*******************


                                    
Suggest correction
Creating personal tab
Creating personal tab
You can edit any tab online and save it as your Personal.

You can edit, replace or remove any tab part or add personal notes – all changes will be seen only by you.

Personal tabs can be accessed anytime from any device, even offline.
Learn more »
Give kudos to tab author, rate the tab!
1 2 3 4 5
comments
print report bad tab
guest
You may want to rate the tab now too:
select rating
Wanna post a correction for this tab? Suggest correction