Oops, an error
Loading. Please wait.

Brave Captain tab

43 views 3 this week
no commentswrite comment
1 2 3 4 5
3 more votes to show rating
add to favorites
×
Save as Personal and add changes to this tab that will be seen only by you. Learn more ›
×
You can save this tab as Personal to edit and correct it or add notes. All changes will be seen only by you. Learn more »
launch autoscroll
font size
0
reset
how to read this tab
guitar tuner
edit
Autoscroll
slow
fast
+/-
esc
set tempo
stop
About this tab version
The whole thing in standard tuning. Enjoy :). Was this info helpful? Yes No
[Intro]
(1:08)
e|----------|--------------------|---------------------|---------------------|
B|----------|--------------------|---------------------|---------------------|
G|----------|--------------------|---------------------|---------------------|
D|---3------|--------------------|---------------------|---------------------|
A|---3------|---5~-----5--3~-----|-1~----1h3-0~----1p0-|-----------5--6------|
E|---1------|--------------------|---------------------|-3---3/1-------------|

(1:28)
e|-------------|-------------------|---------------------5-----3------5------|
B|-------------|-------------------|------------------3------3-------3-------|
G|-------------|-------------------|--------------------------------2--------|
D|-------------|-------------------|---------------5-------5-----------------|
A|--5--5h7-3---|---1--1h3-0----1p0-|----------6~-----------------------------|
E|-------------|-------------------|-3---3/1---------------------------------|

(1:44)                                "A statue of a young man...."
e|----------------------------------------------------|----------------------|
B|----------------------------------------------------|----------------------|
G|---------5/7--5--7/2--------5p2-0-2-----------------|----8b(10)--8---------|
D|-----5-7--------------------------------------------|----------------------|
A|---8------------------------------------------------|----------------------|
E|----------------------------------------------------|----------------------|

(2:01)
e|---5----5----1----0----3----1-----------------------|----------------------|
B|---6----6----3----1----3----1-----------------------|----------------------|
G|---7----5----3----2----3----2-----------------------|----8b(10)--8---------|
D|---7----7----3----2----5----3-----------------------|----------------------|
A|---5----5----1----0----5----3-----------------------|----------------------|
E|-----------------------3----1-----------------------|----------------------|

(2:15)
e|-----------------------------|----------------------------------------------|
B|---------------------3-------|----------------------------------------------|
G|--/7----7h9-5----3-3---5-3-2-|--2-5-3-2h3p2p0-----------7b(8)-8-------------|
D|-----------------------------|-----------------5p3-3------------------------|
A|-----------------------------|----------------------------------------------|
E|-----------------------------|----------------------------------------------|

(2:28)
e|--------------------------------------|-------------------------------------|
B|--------------------------------------|-------------------------------------|
G|------------------14----------12-12\--|-----10---7h10p7---------------------|
D|-15b(17)-15-13-12----15-12-10---------|--8-------------8-7-8-7h8p7------10--|
A|--------------------------------------|----------------------------10-8-----|
E|--------------------------------------|-------------------------------------|

(2:36)                                                         "Sunshine through the
e|---------------------------5-8-6---|----------------------------------------|
B|-------------------------6---------|--3~------------------------------------|
G|---7-------------------5-----------|--2~------------------------------------|
D|-5---8p7h8-------3-5/7-------------|--0~------------------------------------|
A|-----------------------------------|----------------------------------------|
E|--------------1--------------------|----------------------------------------|

(2:57)
Leaves"
e|---5---5---1---5---3---1-------------|--5---5---1---5---3---1--------------|
B|---6---6---3---6---3---1-------------|--6---6---3---6---3---1--------------|
G|---7---5---3---7---3---2---8b(10)--8-|--7---5---3---7---3---2---8b(10)--8--|
D|-------------------------------------|-------------------------------------|
A|-------------------------------------|-------------------------------------|
E|-------------------------------------|-------------------------------------|

(3:24)
e|---------------------------------------------------------------------------|
B|-------7-----------5------------3------------5-----------------------------|
G|-------7-----------6------3--------3---5--------5--------------------------|
D|----7-----7-----7-----7---3------------5--5--------------------------------|
A|-5------------------------1--1---------3-----------------------------------|
E|-------------5-------------------------------------------------------------|

(3:31)
e|----------------------6--------------|--------------------6-----------------|
B|----6-------6------6--6-------6------|--6-------6------6--6---6h8-6---------|
G|----5-----5------5----7-----7-----5--|--5-----5------5----7------------5----|
D|----7---7------6------6--------------|--7---7----6-6------6-----------------|
A|----------------------8--------------|--------------------8-----------------|
E|----------------------6--------------|--------------------6-----------------|

(3:45)
e|----5-------5------6--6-------6------|--------------------6-----------------|
B|----6-------6------6--6-----6--------|--6---6---6-6-------6-----------------|
G|----5-----5------5----7-----------5--|--5---5---5-5-------7-----------------|
D|----7---7------6------6--------------|--7---7---6-6-------6-----------------|
A|----------------------8--------------|--------------------8-----------------|
E|----------------------6--------------|--------------------6-----------------|

(Bass + keyboard riff begins)

(4:44)
e|---------------------------------------------------------|-----------------|
B|---------------------------------------------------------|-----------------|
G|-2h3p2p0h2------2h3p2p0h2------2h3p2p0h2-------------2h5-|--2h3p2p0h2------|
D|-----------3/5------------3/5------------3/5-----3h5-----|------------3/5--|
A|-----------------------------------------------3---------|-----------------|
E|---------------------------------------------------------|-----------------|

(4:49)
e|---------------------------|------------------------------------------------|
B|---------------------------|------------------------------------------------|
G|-2h3p2p0h2------2h3p2p0h2--|-------2----------------------------------------|
D|-----------3/5-------------|-3--5-----2-------------------------------------|
A|---------------------------|-------------4--5~------------------------------|
E|---------------------------|------------------------------------------------|
                                               W/ bar

(Bass + Keyboard riff)
(5:11)
e|---------------------------------|------------------------------------------|
B|---------------------------------|------------------------------------------|
G|----------------2----------------|------------------------------------------|
D|--3h5p3p2h3-0-2---3h5p3p2h3-0-2--|--3h5p3p2h3-0-2-------7h10----------------|
A|---------------------------------|----------------0-5h8---------------------|
E|---------------------------------|------------------------------------------|

(5:16)
e|---------------------------------|------------------------------------------|
B|---------------------------------|------------------------------------------|
G|----------------2----------------|------------------------0-----------------|
D|--3h5p3p2h3-0-2---3h5p3p2h3-0-2--|--3h5p3p2h3-0-2---0-2-3-------------------|
A|---------------------------------|----------------0-------------------------|
E|---------------------------------|------------------------------------------|

(5:20)
e|---------------------------------------------------------|-----------------|
B|---------------------------------------------------------|-----------------|
G|-2h3p2p0h2------2h3p2p0h2------2h3p2p0h2-------------2h5-|--2h3p2p0h2------|
D|-----------3/5------------3/5------------3/5-----3h5-----|------------3/5--|
A|-----------------------------------------------3---------|-----------------|
E|---------------------------------------------------------|-----------------|

(5:26)
e|--------------------------------------------------------|-------------------|
B|--------------------------------------------------------|-------------------|
G|-2h3p2p0h2------2h3p2p0h2---------2--------------2------|----------------12-|
D|-----------3/5--------------3--5-----2-----3--5-----2---|---/12-12-14-15----|
A|----------------------------------------4---------------|-------------------|
E|--------------------------------------------------------|-------------------|

(5:36)
e|-------------------------------------|---------------------------------------|
B|-------------------------------------|---------------------------------------|
G|-------------------------------------|-------------------10------------------|
D|-10h12-12p10-12-12-12-10h12-12p10-12-|-10h12-12p10-12-12----12-10------------|
A|-------------------------------------|----------------------------12-11-10---|
E|-------------------------------------|-------------------------------------13|

(5:42)
e|--------------------------------------|--------------------------------------|
B|--------------------------------------|--------------------------------------|
G|--------------------------------------|-------------------10-----------------|
D|-10h12-12p10-12-12-12-/12 12-12p10-12-|-10h12-12p10-12-12----12-10-----------|
A|--------------------------------------|----------------------------12-10br---|
E|--------------------------------------|------------------------------------13|

(5:47)
e|-------------------------------------|---------------------------------------|
B|-------------------------------------|---------------------------------------|
G|-------------------------------------|-------------------10------------------|
D|-10h12-12p10-12-12-12-10h12-12p10-12-|-10h12-12p10-12-12----12-10------------|
A|-------------------------------------|----------------------------12-11-10---|
E|-------------------------------------|-------------------------------------13|

(5:53)
e|--------------------------------------|--------------------------------------|
B|--------------------------------------|--------------------------------------|
G|--------------------------------10----|-------------------10-----------------|
D|-10h12-12p10-12-12-12-/12 12-12----12-|-10h12-12p10-12-12----12-10-----------|
A|--------------------------------------|----------------------------12-10br---|
E|--------------------------------------|------------------------------------13|

(5:59)
e|---------------------------------|------------------------------------------|
B|---------------------------------|------------------------------------------|
G|-9h10-10p9-10-10-10-9h10-10p9-10-|-9h10-10p9-10-10-12-10h12p10p9------------|
D|---------------------------------|-------------------------------12-11-10---|
A|---------------------------------|----------------------------------------12|
E|---------------------------------|------------------------------------------|

(6:04)
e|---------------------------------|------------------------------------------|
B|---------------------------------|------------------------------------------|
G|-9h10-10p9-10-10-10-9h10-10p9-10-|-9h10-10p9-10-10-12-10-9------------------|
D|---------------------------------|-------------------------12-11------------|
A|---------------------------------|-------------------------------12p11\8----|
E|---------------------------------|------------------------------------------|

(6:12)
e|--------------------------------------|-------------------------------------|
B|--------------------------------------|-------------------------------------|
G|--------------------------------------|-------------------------------------|
D|---2-3/5~------0-2-3-----0------------|-------------------------------------|
A|-3------------------------------3-4/8-|--5~-----5--3------1----3-1-0---1p0--|
E|--------------------------------------|-------------------------------------|

(6:30)
e|------------------|---------------------------------------------------------|
B|------------------|---------------------------------------------------------|
G|-----------7---8--|--7---5---3---2-------------7--8-------------------------|
D|-----------7---8--|--7---5---3---2---5---3-----7--8-------------------------|
A|-----------5---6--|--5---3---1---0---5---3-----5--6-------------------------|
E|-3~--3\1----------|------------------3---1----------------------------------|

(6:48)
e|-------------------------------|--------------------------------------------|
B|-------------------------------|--------------------------------------------|
G|---7---5---3---2-------------8-|----7---5---3---2-------------8-------------|
D|---7---5---3---2---5---3-----8-|----7---5---3---2---5---3-----8-------------|
A|---5---3---1---0---5---3-----6-|----5---3---1---0---5---3-----6-------------|
E|-------------------3---1-------|--------------------3---1-------------------|

(7:19)
e|----------------------------------------------------------------------------|
B|-------------------------------------------8b(10)r(8)b(10)r(8)b(10)---------|
G|---------------10br----7-----------------x----------------------------------|
D|--10br--------x--------7----------------------------------------------------|
A|-------------x--------------------------------------------------------------|
E|----------------------------------------------------------------------------|

(7:36)
e|---------------------------------------------------------------------------|
B|-----------6/13---10-8-----------------------------------------------------|
G|-5/7-7-------------------7-----7\2-----------------------------------------|
D|---------------------------------------------------------------------------|
A|---------------------------------------------------------------------------|
E|---------------------------------------------------------------------------|

(9:05)         (9:24) "Brave captain of the skies..."   
e|---5/7\5--|----------------------------------------------------------------|
B|----------|----------------------------------------------------------------|
G|---5/7\5--|----------------------------------------------------------------|
D|----------|--7-6-5------------------------5-7-5----5/7\5-------------------|
A|----------|--------8--5------5---8p5h8--8----------------------------------|
E|----------|-------------5-8------------------------------------------------|

(9:31)
e|----------------------------|--------------------------|
B|----------------------------|--------------------------|
G|----------------------------|--------------------------|
D|--7-6-5---------------------|---5-7-5----5/7\5-----5-6-|
A|--------8--5------5---8p5h8-|-8------------------------|
E|-------------5-8------------|--------------------------|

(9:37)
e|----------------------------|--------------------------|
B|----------------------------|--------------------------|
G|----------------------------|--------------------------|
D|--7-6-5---------------------|---5-7-5----5/7\5-----5-6-|
A|--------8--5------5---8p5h8-|-8------------------------|
E|-------------5-8------------|--------------------------|

(9:44)
e|----------------------------|--------------------------|
B|----------------------------|--------------------------|
G|----------------------------|--------------------------|
D|--7-6-5---------------------|---5-7-5----5/7\5---------|
A|--------8--5------5---8p5h8-|-8------------------------|
E|-------------5-8------------|--------------------------|

(9:50)                                                                                   (Play four times)
e|-------------------------------------------|---------------------------------------------------------|
B|-13-15-------13----------13-15-------13----|-12------------------------------------------------------|
G|-------12-14----14-------------12-14----14-|----14-12-14----12-------------12------------------------|
D|-------------------15-12-------------------|-------------15-------12-15-12----15-12----15-12---------|
A|-------------------------------------------|-------------------15-------------------15-------15-12---|
E|-------------------------------------------|---------------------------------------------------------|

(10:14)                                                          (Play four times)
e|-------------------------------------|---------------------------------------|
B|-------------------------------------|---------------------------------------|
G|-------------------------------------|---------------------------------------|
D|-----------3----------------------3\-|-----------3---------------------------|
A|-----------------1---1h3-1---/3h6----|-----------------1----1h3-1--1-2-3-----|
E|-1---4p3p1---1-1---------------------|-1---4p3p1---1-1----4--------------4-3-|

(11:03)
e|-----------------------------------|----------------------------------------|
B|-----------------------------------|----------------------------------------|
G|--/10----8-------------------------|----------------------------------------|
D|------------6-8--8b(10)r(8)p6------|----------------------------------------|
A|------------------------------8----|--/3-6-3-4-6-4---4----------------------|
E|-----------------------------------|---------------6------------------------|

(11:10)
e|----------------------------------|---------------------------------|
B|----------------------------------|--------------------------9-9b---|
G|--/10----8------------------------|---------------------8h10--------|
D|------------6-8--8b(10)r(8)p6-----|------6h8p6---6h8h10-------------|
A|------------------------------8---|--6h8-------8--------------------|
E|----------------------------------|---------------------------------|

(11:16)
e|------------------------------------------|-------------------------------------------|
B|--16b(18)-16------------------------------|-------------------------------------------|
G|-------------13h15-15b(17)-(17)-(17)-(17)-|-(17)-(17)-(17)-(17)-(17)-(17)-(17)r(15)-14|
D|------------------------------------------|-------------------------------------------|
A|------------------------------------------|-------------------------------------------|
E|------------------------------------------|-------------------------------------------|

(11:22)
e|-------------------16b(18)-16-15-13-|----------------------------------------|
B|--16b(18)-16------------------------|-16-14----13-14-13----13----------------|
G|-------------13h15------------------|-------15----------15-------------------|
D|------------------------------------|----------------------------------------|
A|------------------------------------|----------------------------------------|
E|------------------------------------|----------------------------------------|

(11:28)                                                           (Play two times)
e|-------------------------------------|---------------------------------------|
B|-------------------------------------|---------------------------------------|
G|-------------------------------------|---------------------------------------|
D|-----------3----------------------3\-|-----------3---------------------------|
A|-----------------1---1h3-1---/3h6----|-----------------1----1h3-1--1-2-3-----|
E|-1---4p3p1---1-1---------------------|-1---4p3p1---1-1----4--------------4-3-|

(11:55)
e|-17~----17b(18)r(17)--------|---------------------|--------------------------|
B|----------------------------|--13b(15)r(13)-------|--------------------------|
G|---------------------15\14--|---------------------|---14b(16)r(14)-----------|
D|----------------------------|---------------12\10-|--------------------------|
A|----------------------------|---------------------|----------------13-12\----|
E|----------------------------|---------------------|--------------------------|


************************************

| h    Hammer-on
| p    Pull-off
| ~    Vibrato
| /    Slide up
| \    Slide down
| br   Bend release
| x    Dead note
| b    Bend
| (n)  Ghost note

************************************

            
            
Suggest correction
Creating personal tab
Creating personal tab
You can edit any tab online and save it as your Personal.

You can edit, replace or remove any tab part or add personal notes – all changes will be seen only by you.

Personal tabs can be accessed anytime from any device, even offline.
Learn more »
Give kudos to tab author, rate the tab!
1 2 3 4 5
comments
print report bad tab
guest
You may want to rate the tab now too:
select rating
Wanna post a correction for this tab? Suggest correction