Oops, an error
Loading. Please wait.

Winchester From St Giles Hill tab

28 views 3 this week
2 commentsread comments
1 2 3 4 5
3 more votes to show rating
add to favorites
×
Save as Personal and add changes to this tab that will be seen only by you. Learn more ›
×
You can save this tab as Personal to edit and correct it or add notes. All changes will be seen only by you. Learn more »
launch autoscroll
font size
0
reset
how to read this tab
guitar tuner
edit
Autoscroll
slow
fast
+/-
esc
set tempo
stop
About this tab version
It's as accurate as can be make out, enjoy :). Was this info helpful? Yes No
[Verse 1]
(0:17)
e|--------4----------4----------4----------4---|------0---------------0-------|
B|------5----------5----------4----------4-----|-------4-------------7--------|
G|--------------------------4----------4-------|--------4-----------7---------|
D|----7----------7--------1----------1---------|---------2---------5----------|
A|--4----------4-------------------------------|----------4-------7-----------|
E|---------------------------------------------|-----------0-----0------------|

(0:38)
e|--------------------|----3-----------------|-3---0---0---0---0---------------|
B|-10--8---17--15-----|----3-----------------|-5----0---0---0---0--------------|
G|--9--9---16--16-----|----3--------3/5--5\3-|-0-----7---7---7---7-------------|
D|-------------16-----|----3--------5/7--7\5-|-5------7---7---7---7------------|
A|--------------------|----------------------|---------------------------------|
E|--------------------|----------------------|---------------------------------|

(0:54)
e|-------0---------|------------------------------------|
B|--4-----4------4-|--7----7--5----------------8--------|
G|--4------4-----4-|--7----7--7----7-----7---7---10p9-7-|
D|--2-------2----2-|--5-------5------7/9---7------------|
A|--4--------4---4-|--7-------7-------------------------|
E|-----------------|--0---------------------------------|

(1:06)
e|--5--3--1--0---|-------------------------------5-|-5-5-5-5---|
B|--3--3--3--3---|--3-5-6-5-3-6---6---5--------5---|-5-5-5-5---|
G|--3--3--3--3---|--------------5---4--------5-----|-5-5-5-5---|
D|---------------|-----------------------5h7-------|-----------|
A|---------------|---------------------------------|-----------|
E|---------------|---------------------------------|-----------|

(1:14)                                    [Chorus]
e|-10p7-----5--------------------------|--0---0---0---0-|--0---0---0---0-----|
B|------8-----5-----------8---10----13-|--1---1---1---0-|--1---1---1---0-----|
G|--------7-----5-----7-5---7----10----|--2---0---2---1-|--2---0---2---1-----|
D|----------------7-5------------------|--2---2---2---0-|--2---2---2---0-----|
A|-------------------------------------|--0---3---0---2-|--0---3---0---2-----|
E|-------------------------------------|----------1---0-|----------1---0-----|

(1:41)                           [Verse 2]
e|---------------|------------|--0---------------0-------------0----0--0----------------|
B|---------------|------------|--4-----------4-----4-----------7----7--7---8--10---10\--|
G|-2---2-2-2---1-|-2---2-2-2--|--4---------4---4-----4---------7----7--7---7---9----9\--|
D|-2---2-2-2---2-|-2---2-2-2--|--2-------2-------------2-------5----5--5----------------|
A|-2---2-2-2---2-|-2---2-2-2--|--4-----------------------------7----7--7----------------|
E|-1---1-1-1---0-|-1---1-1-1--|--0-----------------------------0----0--0----------------|

(2:02)
e|--3-----6-------8---------10-------12-------13-|--3------3-----------------|
B|--3-------8---8---10---------11-----------15---|--5------5-----------------|
G|--3---------7--------9h10-------10------14-----|--0------0-----------------|
D|--3--------------------------------------------|--5------5-----------------|
A|-----------------------------------------------|---------------------------|
E|-----------------------------------------------|---------------------------|

(2:14)
e|--0-|----------------------------------|-0-|----------------------------------------------|
B|--4-|----4-----4-----4---4-----4-----4-|-7-|-------8------10-------13-------17-------20---|
G|--4-|------4-------4-------4-------2---|-7-|---7/9---9/11----11/14----14/17----17/21------|
D|--2-|--2-----2---2-----2-----2---2-----|-5-|----------------------------------------------|
A|--4-|----------------------------------|-7-|----------------------------------------------|
E|--0-|----------------------------------|-0-|----------------------------------------------|

(2:26)
e|--3-|------------------------------------------|--3--|-7----------------------------------|
B|--3-|--11--11-10/11--11-10br-------------------|--5--|---8-----8--------------------------|
G|--3-|--12-----10/12----------12-10-------------|--0--|-----9-----9------9-9-9-9-9-9-9-9---|
D|--3-|------------------------------12-10-------|--5--|-------9-----9----9-9-9-9-9-9-9-9---|
A|----|------------------------------------13-10-|-----|---------------7--7-7-7-7-7-7-7-7---|
E|----|------------------------------------------|-----|------------------------------------|

(2:38)
[Chorus]
e|--0---0---0---0-|--0---0---0---0--|-----------------|--------------0---|
B|--1---1---1---0-|--1---1---1---0--|-----------------|--------------0---|
G|--2---0---2---1-|--2---0---2---1--|--2---2-2-2---1--|--2---2-2-2---2---|
D|--2---2---2---0-|--2---2---2---0--|--2---2-2-2---2--|--2---2-2-2---2---|
A|--0---3---0---2-|--0---3---0---2--|--2---2-2-2---2--|--2---2-2-2---0---|
E|----------1---0-|----------1---0--|--1---1-1-1---0--|--1---1-1-1-------|

[Let's get proggy]
(3:24)
e|--0----4--4--2--0--0--------2---0-|-0---------------------------------------------------------------|
B|--0----5--4--3--2--0---4----4---0-|-4---------------------------------------------------------------|
G|--4----4--4--2--2--2---4----2---1-|-4-4---4---4---4---2---2---2---2---4---4---4---4---2---2---2---2-|
D|--2----6--6--4--2--2---2----4---2-|-2---2---2---2---------------------------------------------------|
A|--0----4--4--------2---4----2---2-|-4---------------4---4---4---4---6---6---6---6---4---4---4---4---|
E|-------4--4--------0------------0-|-0---------------------------------------------------------------|

(3:54)
e|--------------------------------|-----------------------------------------|
B|--------------------------------|-----------------------------------------|
G|--4---4---4---4---2---2---2---2-|---4---4---4---4---2---2---2---2---------|
D|2---2---2---2-------------------|-----------------------------------------|
A|----------------4---4---4---4---|-6---6---6---6---4---4---4---4-----------|
E|--------------------------------|-----------------------------------------|

(4:05)
e|----------------------------------|------------------------------------------|
B|----------------------------------|------------------------------------------|
G|----------2-4-1-------------2-1---|-2-2-4-----4-2-----2---2---2---2----------|
D|------2-4-------2-----2-4-1-----2-|-------0-------0--------------------------|
A|--2-4-------------2-4-------------|---------4-------2---2---2---2------------|
E|----------------------------------|------------------------------------------|

(4:15)
e|-----------------|-----------------|-------------------|
B|-----------------|-----------------|-------------------|
G|-----------------|---4---4---4---4-|---2---2---2---2---|
D|---6---6---6---6-|-----------------|-------------------|
A|-----------------|-4---4---4---4---|-4---4---4---4-----|
E|-4---4---4---4---|-----------------|-------------------|

(4:23)
e|--------------------------------|-----------------------------------------|
B|--------------------------------|-----------------------------------------|
G|--4---4---4---4---2---2---2---2-|---4---4---4---4---2---2---2---2---------|
D|2---2---2---2-------------------|-----------------------------------------|
A|----------------4---4---4---4---|-6---6---6---6---4---4---4---4-----------|
E|--------------------------------|-----------------------------------------|

(4:34)
e|--------------------------------|-----------------------------------------|
B|--------------------------------|-----------------------------------------|
G|--4---4---4---4---2---2---2---2-|---4---4---4---4---2---2---2---2---------|
D|2---2---2---2-------------------|-----------------------------------------|
A|----------------4---4---4---4---|-6---6---6---6---4---4---4---4-----------|
E|--------------------------------|-----------------------------------------|

(4:45)
e|---------------------------------|-------------------------------------------|
B|---------------------------------|-------------------------------------------|
G|-----4-------4-------4-------4---|-----4-------4-------4-------4-------------|
D|---2---2---2---2---2---2---2---2-|---2---2---2---2---2---2---2---2-----------|
A|-4-------4-------4-------4-------|-4-------4-------4-------4-----------------|
E|---------------------------------|-------------------------------------------|

(4:55)
e|---------------------------------|-------------------------------------------|
B|---------------------------------|-------------------------------------------|
G|-----0-------0-------0-------0---|-----3-------3-------3-------3-------------|
D|---2---2---2---2---2---2---2---2-|---0---0---0---0---0---0---0---------------|
A|-3-------3-------3-------3-------|-1-------1-------1-------1-----------------|
E|---------------------------------|-------------------------------------------|

(5:05)
e|------------------------------------|--------------------------------------------------|
B|------------------------------------|--------------------15-----------5-6-6h8p6-5---5--|
G|-----9-------10-------10---9--7-9---|---14-16-17---16-17----------5-7-------------7----|
D|-5/7-----5/7------5/7---------------|-------------------------5-7----------------------|
A|------------------------------------|--------------------------------------------------|
E|------------------------------------|--------------------------------------------------|

(5:17)
e|-------------------------------------------|----------------------------------------|
B|---5-7-7/9---7\5\2-------------------------|--11-11--------------6/-------6-8-6-----|
G|---------------------9-11-11brb---16brbr\--|--10-10--10---------------7-9-------7---|
D|-------------------------------------------|---8--8--10----5h7h8--------------------|
A|-------------------------------------------|----------8--5----------5---------------|
E|-------------------------------------------|----------------------------------------|

(5:36)
e|----------------------------10h12p10----10-|-15-17-17b(19)-17br-15-17---------------|
B|-------------10h12p10----10----------12----|--------------------------15br-13h15----|
G|-9h12p9----9----------12-------------------|-------------------------------------14-|
D|--------12---------------------------------|----------------------------------------|
A|-------------------------------------------|----------------------------------------|
E|-------------------------------------------|----------------------------------------|

(6:03)
[And they bring it back]
e|-----------|----------------------------------------------------------------|
B|-----------|----------------------------------------------------------------|
G|--13-14-16-|---17-16-14----14---------12----------------12-0----------------|
D|-----------|------------17------12h14----14-12----12-14-------5/7\5---------|
A|-----------|--------------------------------------------------------5/7\5-3-|
E|-----------|----------------------------------------------------------------|

(6:13)
e|--------------------------------------------|----12-----------------------------------|
B|--------------------------------------------|-13-------13----13-----------------------|
G|-----------5---5----7/9-----13--14-13-14-16-|-------14-----------16----14-12----------|
D|-------5h7---7------------------------------|-------------15--------12-------14-------|
A|-5-5h7--------------------------------------|-----------------------------------15-17-|
E|--------------------------------------------|-----------------------------------------|

(6:25)
e|------------------------------------|
B|-----------------------8------------|
G|----------------7h9h10---10-9-7-9---|
D|---------7h9h10---------------------|  "....Open fields"
A|--7h8h10----------------------------|
E|------------------------------------|

(6:30)
e|--12--------------------------------|------------------------------------------------|
B|-----15--13/15-15-------------------|--------------------------------------------12--|
G|------------------14---14-14---12---|---12/14---------------------------------13-----|
D|------------------------------------|---------14-12/14-14------------------14--------|
A|------------------------------------|---------------------12---12-12/15-15-----------|
E|------------------------------------|------------------------------------------------|

(6:42)
e|--------------------------|------------12-15--13h15p13p12----12-------------------|-----------0------------|
B|-12h13----18\17-17/20-20--|---------13--------------------15----13-12-------------|-----------0------------|
G|--------------------------|------14-----------------------------------14-13-14-16-|-2--2-2-2--1---2--2-2-2-|
D|--------------------------|---15--------------------------------------------------|-2--2-2-2--2---2--2-2-2-|
A|--------------------------|-------------------------------------------------------|-2--2-2-2--2---2--2-2-2-|
E|--------------------------|-------------------------------------------------------|-1--1-1-1--0---1--1-1-1-|

(7:03)
e|-0-----9-----|
B|-0-----9-----|
G|-4-----9-----|
D|-2-----9-----|
A|-0-----9-----|
E|-0-----0-----|


************************************

| /   Slide up
| \   Slide down
| p   Pull-off
| h   Hammer-on
| br  Bend release

************************************

            
            
Suggest correction
Creating personal tab
Creating personal tab
You can edit any tab online and save it as your Personal.

You can edit, replace or remove any tab part or add personal notes – all changes will be seen only by you.

Personal tabs can be accessed anytime from any device, even offline.
Learn more »
Give kudos to tab author, rate the tab!
1 2 3 4 5
comments
print report bad tab
2 comments total.
0 reply
marcus_chavas 12 Jun 27, 2017 07:55 AM

More BBT tabs!! I've been waiting so long for some talented individual to start doing them, you're my hero

0 reply
o my yer 77 Jun 28, 2017 05:21 AM

Thanks! I'm into doing anything from English Electric 1 & 2, Folklore and Grimspound, so what do you want to see?
I'm about to begin Meadowland now.

guest
You may want to rate the tab now too:
select rating
Wanna post a correction for this tab? Suggest correction