Oops, an error
Loading. Please wait.

Head North Turn Left tab

version 2
version 2

Whole song

1,026 views 1 this week
no commentswrite comment
1 2 3 4 5
3 more votes to show rating
add to favorites
×
Save as Personal and add changes to this tab that will be seen only by you. Learn more ›
×
You can save this tab as Personal to edit and correct it or add notes. All changes will be seen only by you. Learn more »
launch autoscroll
font size
0
reset
how to read this tab
guitar tuner
edit
Autoscroll
slow
fast
+/-
esc
set tempo
stop
First Tab...
There was only one Tab for this song...i fixed it up a little...there are different 
me out and choose which one is correct

The Other Tab was in D Tuning...this is in Drop D tuning. Making it a little easier for 
all.

Gtr I (D A D G B E) - 'Untitled'
Gtr II (D A D G B E) - 'Untitled'

 4/4
FIRST RIFF

   Gtr I
|----||------------------------------------------------------------||
|----||o---1------1------1------1------6------6------6------6-----o||
|----||----0------0------0------0------5------5------5------5------||
|----||------------------------------------------------------------||
|--1-||o-1----1-1----1---------------6----6-6----6----------------o||
|----||----------------0----0-0----0---------------5----5-5----5---||
|
|  Gtr II
|----||----1------1------1------1----------------------------------||
|----||o---1------1------1------1------6------6------6------6-----o||
|----||--------------------------------3------3------3------3------||
|----||------------------------------------------------------------||
|--1-||o-1----1-1----1---------------6----6-6----6----------------o||
|----||----------------0----0-0----0---------------5----5-5----5---||

SECOND RIFF
    Gtr I
                                             4x
||--------------------|----------------------||----|
||o-------------------|---------------------o||----|
||------10-------10---|------10--------10----||----|
||----8----8---8----8-|----8----8----8----8--||----|
||o-6--------8--------|-10--------10--------o||----|
||--------------------|----------------------||----|
|
|   Gtr II
|                                            4x
||--------------------|----------------------||----|
||o-------------------|---------------------o||----|
||------10-------10---|------10--------10----||----|
||----8----8---8----8-|----8----8----8----8--||----|
||o-6--------5--------|---------------------o||----|
||--------------------|--5---------5---------||----|


THIRD RIFF                          4x
||----------------------------------||----|
||o--------------------------------o||----|
||----------------------------------||----|
||---8--x--8--8--x--8-3--x-3-3-5-7--||----|
||o--6--x--6--5--x--5-1--x-1-1-3-5-o||----|
||----------------------------------||----|
|
|                                   4x
||----------------------------------||----|
||o--------------------------------o||----|
||--10--x-10-10--x-10-3--x-3-3-7-5--||----|
||---8--x--8--7--x--7-1--x-1-1-5-3--||----|
||o--------------------------------o||----|
||----------------------------------||----|

            
            
Suggest correction
Creating personal tab
Creating personal tab
You can edit any tab online and save it as your Personal.

You can edit, replace or remove any tab part or add personal notes – all changes will be seen only by you.

Personal tabs can be accessed anytime from any device, even offline.
Learn more »
Give kudos to tab author, rate the tab!
1 2 3 4 5
comments
print report bad tab
guest
Wanna post a correction for this tab? Suggest correction