Oops, an error
Loading. Please wait.

Chesters Farm tab

43 views 1 this week
no commentswrite comment
1 2 3 4 5
3 more votes to show rating
add to favorites
×
Save as Personal and add changes to this tab that will be seen only by you. Learn more ›
×
You can save this tab as Personal to edit and correct it or add notes. All changes will be seen only by you. Learn more »
launch autoscroll
font size
0
reset
how to read this tab
guitar tuner
edit
Autoscroll
slow
fast
+/-
esc
set tempo
stop
About this tab version
This is as close to the studio version as possible for me, this is also the only full version online. Was this info helpful? Yes No
[Intro]
e|-----------------------------------------------------------------|
B|-------3-----3-----0---3-----3-----0---3-----3-----0---3-----3---|
G|---0-----0-------0---0---0-------0---0---0-------0---0---0-------|
D|-2---2-----2---2-----------2---2-----------2---2-----------2-----|
A|-----------------------------------------------------------------|
D|-----------------------------------------------------------------|
PM ****************************************************************

e|---------2-----2---------2-----2-----2---5-2---5---2-2---5-2-----|
B|-----0-----0---------0-----0-----3-3---3-----3---3-----3-----3---|
G|---0---0-----0-----0---0-----0-----------------------------------|
D|-2---------------2-----------------------------------------------|
A|-----------------------------------------------------------------|
D|-----------------------------------------------------------------|
PM******************************************************************

e|----------------------------------|
B|-------8-7--------------8-8-7-7~--|
G|-------7-7-6-6--5-5-5~--7-7-7-7~--|
D|-5-5~--7-7-7-7--5-5-5~--5-5-7-7~--|
A|-5-5~--5-5-7-7--3-3-3~--5-5-9-9~--|
D|-5-5~------7-7--------------------|

e|---------------------------------------------------------|
B|-15-17-18-17-15----15------------------------------------|
G|----------------17----17-14~------------------14-14-14~--|
D|-----------------------------------15~-17~-15------------|
A|-----------------------------15-17-----------------------|
D|---------------------------------------------------------|

e|---------------------------------------------------|
B|-13h15p13------------------------------------------|
G|----------14-12----15----17----------------17------|
D|----------------15----15----17-17/19~---17----19~--|
A|---------------------------------------------------|
D|---------------------------------------------------|

[Verse 1]
e|--------------------------------------------------------------------------------------|
B|--------------------------------------------------------------------------------------|
G|-7-7-7-7-7-5-7-5-7-7-7------------7-7-7-7-7-5-7-5-7-7-7-------------------------------|
D|-7-7-7-7-7-7-7-7-7-7-7------------7-7-7-7-7-7-7-7-7-7-7-----------3-2-0-----2-0-------|
A|-5-5-5-5-5-5-5-5-5-5-5--\7-5-3~/5-5-5-5-5-5-5-5-5-5-5-5-\7-5-3-1~---------------3~/5--|
D|------------------------------------------------------------------------3~------------|
PM**********************            PM*******************

e|---------------------------------------------------------------------------------------------------|
B|---------------------------------------------------------------------------------------------------|
G|-7-7-7-7-7-5-7-5-7-7-7------------7-7-7-7-7-5-7-5-7-7-7-----------7-7-7-7-7-5-7-5-7-7-7------------|
D|-7-7-7-7-7-7-7-7-7-7-7------------7-7-7-7-7-7-7-7-7-7-7-----------7-7-7-7-7-7-7-7-7-7-7------------|
A|-5-5-5-5-5-5-5-5-5-5-5--\7-5-3~/5-5-5-5-5-5-5-5-5-5-5-5-\7-5-3~/5-5-5-5-5-5-5-5-5-5-5-5-/7-5-3-1~--|
D|---------------------------------------------------------------------------------------------------|
PM**********************            PM*******************           PM*******************

e|-----------------------------|
B|-----------------------------|
G|-----------------------------|
D|-3-2-0---2-0---------/3-2-0--|
A|-------------3~/5------------|
D|-------3---------------------|

[Chorus]
e|-----------------------------------------------------------------------------------------------------------|
B|-----------------------------------------------------------------------------------------------------------|
G|-5-5-5-5-5-5-5-5-5-5-5-5-5-5-5-5-7-7-7-7-7-7-7-7-7-7-7-/7-5------------------------------------------------|
D|-3-3-3-3-3-3-3-3-3-3-3-3-3-3-3-3-0-0-0-0-0-0-0-0-0-0-0------7~-7-5----2-0---0-0-0-0-0-0-0-0-0-0-0-0-0-0-0-0|
A|-3-3-3-3-3-3-3-3-3-3-3-3-3-3-3-3-0-0-0-0-0-0-0-0-0-0-0-------------3~-----3/5-5-5-5-5-5-5-5-5-5-5-5-5-5-5-5|
E|-3-3-3-3-3-3-3-3-3-3-3-3-3-3-3-3-0-0-0-0-0-0-0-0-0-0-0----------------------0-0-0-0-0-0-0-0-0-0-0-0-0-0-0-0|
PM******************************************************                      PM*****************************

[Solo]
e|----------15-17-15-13h15p13-------------------------------------|
B|-15-17-18-------------------15-13~------------------------------|
G|-----------------------------------------------------14-14-14~--|
D|------------------------------------------15~-17~-15------------|
A|------------------------------------15-17-----------------------|
D|----------------------------------------------------------------|

e|---------------------------------------------------|
B|-13h15p13------------------------------------------|
G|----------14-12----15----17----------------17------|
D|----------------15----15----17-17/19~---17----19~--|
A|---------------------------------------------------|
D|---------------------------------------------------|

[Verse 2]
e|--------------------------------------------------------------------------------------|
B|--------------------------------------------------------------------------------------|
G|-7-7-7-7-7-5-7-5-7-7-7------------7-7-7-7-7-5-7-5-7-7-7-------------------------------|
D|-7-7-7-7-7-7-7-7-7-7-7------------7-7-7-7-7-7-7-7-7-7-7-----------3-2-0-----2-0-------|
A|-5-5-5-5-5-5-5-5-5-5-5--\7-5-3~/5-5-5-5-5-5-5-5-5-5-5-5-\7-5-3-1~---------------3~/5--|
D|------------------------------------------------------------------------3~------------|
PM**********************            PM*******************

e|---------------------------------------------------------------------------------------------------|
B|---------------------------------------------------------------------------------------------------|
G|-7-7-7-7-7-5-7-5-7-7-7------------7-7-7-7-7-5-7-5-7-7-7-----------7-7-7-7-7-5-7-5-7-7-7------------|
D|-7-7-7-7-7-7-7-7-7-7-7------------7-7-7-7-7-7-7-7-7-7-7-----------7-7-7-7-7-7-7-7-7-7-7------------|
A|-5-5-5-5-5-5-5-5-5-5-5--\7-5-3~/5-5-5-5-5-5-5-5-5-5-5-5-\7-5-3~/5-5-5-5-5-5-5-5-5-5-5-5-/7-5-3-1~--|
D|---------------------------------------------------------------------------------------------------|
PM**********************            PM*******************           PM*******************

e|-----------------------------|
B|-----------------------------|
G|-----------------------------|
D|-3-2-0---2-0---------/3-2-0--|
A|-------------3~/5------------|
D|-------3---------------------|

[Chorus 2]
e|-----------------------------------------------------------------------------------------------------------|
B|-----------------------------------------------------------------------------------------------------------|
G|-5-5-5-5-5-5-5-5-5-5-5-5-5-5-5-5-7-7-7-7-7-7-7-7-7-7-7-/7-5------------------------------------------------|
D|-3-3-3-3-3-3-3-3-3-3-3-3-3-3-3-3-0-0-0-0-0-0-0-0-0-0-0------7~-7-5----2-0---0-0-0-0-0-0-0-0-0-0-0-0-0-0-0-0|
A|-3-3-3-3-3-3-3-3-3-3-3-3-3-3-3-3-0-0-0-0-0-0-0-0-0-0-0-------------3~-----3/5-5-5-5-5-5-5-5-5-5-5-5-5-5-5-5|
E|-3-3-3-3-3-3-3-3-3-3-3-3-3-3-3-3-0-0-0-0-0-0-0-0-0-0-0----------------------0-0-0-0-0-0-0-0-0-0-0-0-0-0-0-0|
PM******************************************************                      PM******************************

e|-----------------------------------------------------------------------------------------------------------|
B|-----------------------------------------------------------------------------------------------------------|
G|-5-5-5-5-5-5-5-5-5-5-5-5-5-5-5-5-7-7-7-7-7-7-7-7-7-7-7-/7-5------------------------------------------------|
D|-3-3-3-3-3-3-3-3-3-3-3-3-3-3-3-3-0-0-0-0-0-0-0-0-0-0-0------7~-7-5----2-0---0-0-0-0-0-0-0-0-0-0-0-0-0-0-0-0|
A|-3-3-3-3-3-3-3-3-3-3-3-3-3-3-3-3-0-0-0-0-0-0-0-0-0-0-0-------------3~-----3/5-5-5-5-5-5-5-5-5-5-5-5-5-5-5-5|
E|-3-3-3-3-3-3-3-3-3-3-3-3-3-3-3-3-0-0-0-0-0-0-0-0-0-0-0----------------------0-0-0-0-0-0-0-0-0-0-0-0-0-0-0-0|
PM******************************************************                      PM*****************************

[Solo 2]
e|-----------------------------------------------17p15------------------------------------------------------|
B|----12~----------12-12~------------------------------17-15-17-15-17p15------------------------------------|
G|----12~----12h14-12-12~-14p12----12~-12~-------------------------------16-14-16-14-16p14----------/16-----|
D|-14-----14--------------------14---------14~---------------------------------------------17-14-17-----17~-|
A|----------------------------------------------------------------------------------------------------------|
E|----------------------------------------------------------------------------------------------------------|

e|--------------------------17p15----19p15----20p15----19p15----17p15----19p15----20p15----19p15----17p15----|
B|--------------------------------17-------17-------17-------17-------17-------17-------17-------17-------17-|
G|-----------------------------------------------------------------------------------------------------------|
D|-12h14p12----12-12h14~-------------------------------------------------------------------------------------|
A|----------14-----------------------------------------------------------------------------------------------|
E|-----------------------------------------------------------------------------------------------------------|

e|-19p15----20p15----19p15----17p15----19p15----20p15----19p15----17p15----19p15----20p15----19p15----|
B|-------17-------17-------17-------17-------17-------17-------17-------17-------17-------17-------17-|
G|----------------------------------------------------------------------------------------------------|
D|----------------------------------------------------------------------------------------------------|
A|----------------------------------------------------------------------------------------------------|
E|----------------------------------------------------------------------------------------------------|

e|-17p15----19p15----20p15----19p15----17p15----19p15----17p15----17b~-19b~-19b~-17p15----------------------|
B|-------17-------17-------17-------17-------17-------17-------17----------------------17/20-20p17----------|
G|-------------------------------------------------------------------------------------------------19-16-19-|
D|----------------------------------------------------------------------------------------------------------|
A|----------------------------------------------------------------------------------------------------------|
E|----------------------------------------------------------------------------------------------------------|

e|---------------------------------12-14-15-17-19-/22-22-22-22-20-20p19----19----19----19-20p19----19-20p19-|
B|---------------------------12-15--------------------------------------20----20----20----------20----------|
G|-16---------------11-12-14--------------------------------------------------------------------------------|
D|----17-12~--12-14-----------------------------------------------------------------------------------------|
A|----------------------------------------------------------------------------------------------------------|
E|----------------------------------------------------------------------------------------------------------|

e|----19-20p19----19-20p19----19-20p19----19-20p19--22p19-20p17-19p15-15p14-12-----------------|
B|-20----------20----------20----------20--------------------------------------15--12----------|
G|-------------------------------------------------------------------------------------12-14~--|
D|---------------------------------------------------------------------------------------------|
A|---------------------------------------------------------------------------------------------|
E|---------------------------------------------------------------------------------------------|

[Verse 3]
e|----------------------------------------------------------------------------------------------|
B|----------------------------------------------------------------------------------------------|
G|-7-7-7-7-7-5-7-5-7-7-7------------7-7-7-7-7-5-7-5-7-7-7---------------------------------------|
D|-7-7-7-7-7-7-7-7-7-7-7------------7-7-7-7-7-7-7-7-7-7-7-----------3-2-0-----2-0-------/3-2-0--|
A|-5-5-5-5-5-5-5-5-5-5-5--\7-5-3~/5-5-5-5-5-5-5-5-5-5-5-5-\7-5-3-1~---------------3~/5----------|
D|------------------------------------------------------------------------3~--------------------|
PM**********************            PM*******************  

[Chorus 3]
e|-----------------------------------------------------------------------------------------------------------|
B|-----------------------------------------------------------------------------------------------------------|
G|-5-5-5-5-5-5-5-5-5-5-5-5-5-5-5-5-7-7-7-7-7-7-7-7-7-7-7-/7-5------------------------------------------------|
D|-3-3-3-3-3-3-3-3-3-3-3-3-3-3-3-3-0-0-0-0-0-0-0-0-0-0-0------7~-7-5----2-0---0-0-0-0-0-0-0-0-0-0-0-0-0-0-0-0|
A|-3-3-3-3-3-3-3-3-3-3-3-3-3-3-3-3-0-0-0-0-0-0-0-0-0-0-0-------------3~-----3/5-5-5-5-5-5-5-5-5-5-5-5-5-5-5-5|
E|-3-3-3-3-3-3-3-3-3-3-3-3-3-3-3-3-0-0-0-0-0-0-0-0-0-0-0----------------------0-0-0-0-0-0-0-0-0-0-0-0-0-0-0-0|
PM******************************************************                      PM******************************

e|-----------------------------------------------------------------------------------------------------------|
B|-----------------------------------------------------------------------------------------------------------|
G|-5-5-5-5-5-5-5-5-5-5-5-5-5-5-5-5-7-7-7-7-7-7-7-7-7-7-7-/7-5------------------------------------------------|
D|-3-3-3-3-3-3-3-3-3-3-3-3-3-3-3-3-0-0-0-0-0-0-0-0-0-0-0------7~-7-5----2-0---0-0-0-0-0-0-0-0-0-0-0-0-0-0-0-0|
A|-3-3-3-3-3-3-3-3-3-3-3-3-3-3-3-3-0-0-0-0-0-0-0-0-0-0-0-------------3~-----3/5-5-5-5-5-5-5-5-5-5-5-5-5-5-5-5|
E|-3-3-3-3-3-3-3-3-3-3-3-3-3-3-3-3-0-0-0-0-0-0-0-0-0-0-0----------------------0-0-0-0-0-0-0-0-0-0-0-0-0-0-0-0|
PM******************************************************                      PM*****************************
 
[Outro]
e|--------------|
B|--------------|
G|-7----7-7-7~--|
D|-7----7-7-7~--| (x7)
A|-5----5-5-5~--|
E|-0~---0-0-0~--|

e|-----------------------|
B|-6~-6--6-6--6-6-6-6~---|
G|-7~-7--7-7--7-7-7-7~---|
D|-7~-7--7-7--7-7-7-7~---|
A|-5--5--5-5--5-5-5-5~---|
E|-0--0--0-0--0-0-0-0~---|

************************************

| PM  Palm mute
| ~   Vibrato
| h   Hammer-on
| p   Pull-off
| /   Slide up
| \   Slide down 

************************************
Suggest correction
Creating personal tab
Creating personal tab
You can edit any tab online and save it as your Personal.

You can edit, replace or remove any tab part or add personal notes – all changes will be seen only by you.

Personal tabs can be accessed anytime from any device, even offline.
Learn more »
Give kudos to tab author, rate the tab!
1 2 3 4 5
comments
print report bad tab
guest
You may want to rate the tab now too:
select rating
Wanna post a correction for this tab? Suggest correction