Oops, an error
Loading. Please wait.

On The Shore tab

46 views 1 this week
no commentswrite comment
1 2 3 4 5
3 more votes to show rating
add to favorites
×
Save as Personal and add changes to this tab that will be seen only by you. Learn more ›
×
You can save this tab as Personal to edit and correct it or add notes. All changes will be seen only by you. Learn more »
launch autoscroll
font size
0
reset
how to read this tab
guitar tuner
edit
Autoscroll
slow
fast
+/-
esc
set tempo
stop
Author
The bass notes are optional.

[Intro]

Guitar 1
e|-10h12-10-----10/14~-14-12h14-12--10-12-----10h12-10------10/14-14-12h14p12-------------|
B|-----------12---------------------------10~-----------12~-------------------15-10~------|
G|-------0-0----------------------------------------0-0-----------------------------------|
D|------------------------------0-0-------------------------------------------0--0--------| x2
A|----------------------------------------------------------------------------------------|
E|----------------------------------------------------------------------------------------|

Guitar 2 comes in near the end of the repeat:
e|-14-17-17b(19)---|
B|-----------------|
G|-----------------|
D|-----------------|
A|-----------------|
E|-----------------|


[Verse]

Guitar 1
e|--------------------------------------|
B|-12-12/10----10~--12\15-12-10----10~--|
G|----------11------------------11------|
D|--------------------------------------| x2
A|--------------------------------------|
E|--------------------------------------|

Guitar 2 at the start of second repeat:
e|-----------------|
B|-15-17-17b(19)---|
G|-----------------|
D|-----------------|
A|-----------------|
E|-----------------|

Guitar 1
e|---------------------------------------------------------------------------|
B|---------------------------------------------------------------10----10----|
G|-11-11-9-11/14-11~--9-9-7---7~--9-9/11-9-7---7~-----7---7-9-11----11-------|
D|--------------------------9----------------9------9---9--------------------|
A|---------------------------------------------------------------------------|
E|---------------------------------------------------------------------------|

Guitar 2 at the start of second repeat:
e|--------------------10-10b(12)~----7h10p7----------------------------|
B|-----------------12-----------------------10-7~---7h10p7-------------|
G|---------------------------------------------------------9-7-9b(11)--|
D|---------------------------------------------------------------------|
A|---------------------------------------------------------------------|
E|---------------------------------------------------------------------|

Guitar 1
e|--------------------------------------|
B|-12-12/10----10~--12\15-12-10----10~--|
G|----------11------------------11------|
D|--------------------------------------| x2
A|--------------------------------------|
E|--------------------------------------|

Guitar 2 at the start of second repeat:
e|----10-12b(14)~----14h17p14----14-----------------|
B|-12-------------------------17----17-15-10-10/12--|
G|--------------------------------------------------|
D|--------------------------------------------------|
A|--------------------------------------------------|
E|--------------------------------------------------|

Guitar 1
e|---------------------------------------------------------------------------|
B|---------------------------------------------------------------10----10----|
G|-11-11-9-11/14-11~--9-9-7---7~--9-9/11-9-7---7~-----7---7-9-11----11-------|
D|--------------------------9----------------9------9---9--------------------|
A|---------------------------------------------------------------------------|
E|---------------------------------------------------------------------------|

Guitar 2
e|------------------------------------17-17h19p17-17-15~---|
B|------------------------------17/19----------------------|
G|---------------------------------------------------------|
D|---------------------------------------------------------|
A|---------------------------------------------------------|
E|---------------------------------------------------------|

Guitar 1
e|--------------------------------------|
B|-12-12/10----10~--12\15-12-10----10~--|
G|----------11------------------11------|
D|--------------------------------------| x2
A|--------------------------------------|
E|--------------------------------------|

Guitar 2
e|-7-10-7------------------------------|
B|--------10-7-10-7--------------------|
G|---------------------4h6p4-----------|
D|---------------------------7-4-7-4~--|
A|-------------------------------------|
E|-------------------------------------|

Guitar 1
e|-10h12-10-----10/14~-14-12h14-12--10-12-----10h12-10~-----10/14-14-12h14p12-------------|
B|-----------12---------------------------10~-----------12--------------------15-10~------|
G|----------------------------------------------------------------------------------------|
D|----------------------------------------------------------------------------------------| x2
A|----------------------------------------------------------------------------------------|
E|----------------------------------------------------------------------------------------|

Guitar 2 on second repeat
e|----------------------------------------------------------------------------------12\10-|
B|----------------------------------------------------------------------------------12\10-|
G|----------------------------------------------------------------------------------------|
D|----------------------------------------------------------------------------------------| 
A|----------------------------------------------------------------------------------------|
E|----------------------------------------------------------------------------------------|

Guitar 1
e|--------------------------------------|
B|-12-12/10----10~--12\15-12-10----10~--|
G|----------11------------------11------|
D|--------------------------------------| x2
A|--------------------------------------|
E|--------------------------------------|

Guitar 2 at the start of second repeat:
e|-14-17-14-17b(19)----19p17----17--------------------|
B|---------------------------19----19-17----17b(19)~--|
G|---------------------------------------19-----------|
D|----------------------------------------------------|
A|----------------------------------------------------|
E|----------------------------------------------------|

Guitar 1
e|-----------------------------------------------------|
B|--------------------------------10~--------\12b-10~--|
G|-11-11\9\7~--11-11\9/7-9-7-9-11-----11-9-------------|
D|-----------------------------------------12----------|
A|-----------------------------------------------------|
E|-----------------------------------------------------|

Guitar 2 
e|--------------------------------------------------------------------|
B|--------------------------15-------------------------7b(8)br7-5-----|
G|-----------------------------14b(16)~---------------------------7~--|
D|--------------------------------------------------------------------| 
A|--------------------------------------------------------------------|
E|--------------------------------------------------------------------|

Guitar 1
e|----------------------------------------------------------------------|
B|-12-12/10----10~--12\15-12-10~--------------10----------10\12/10------|
G|----------11--------------------11-9-7-9/11-----11--------------------|
D|-----------------------------------------------------12---------------| 
A|----------------------------------------------------------------------|
E|----------------------------------------------------------------------|

Guitar 2
e|-------------------------------------------------------------------|
B|-------------------------------------------------------------------|
G|----------------------------------4h6p4---4-6b(7)~---4h6p4---4-----|
D|----------------------------------------7------------------7---4~--| 
A|-------------------------------------------------------------------|
E|-------------------------------------------------------------------|

Guitar 1
e|-----------------------------------------------------------------------|
B|--------------------------------------------------------10-------------|
G|-11-11\9-7-11-11\9-7-9-9-7---7~----7-9/11-9-7-9/11-9-11----11-9-7------|
D|---------------------------9-----9-------------------------------------|
A|-----------------------------------------------------------------------|
E|-----------------------------------------------------------------------|

Guitar 1
e|------------------------------------------------|
B|------------------------------------------------|
G|-11-9-11--9-7-9--7-4-7--11-9-11--9-7-9--7-4-7---|
D|------------------------------------------------|
A|------------------------------------------------|
E|------------------------------------------------|

Guitar 2
e|-------14------------------------14---------|
B|----15----15------------------15----15------|
G|-16----------16~-----------16----------16~--|
D|--------------------------------------------|
A|--------------------------------------------|
E|--------------------------------------------|

Guitar 1
e|-----------------------------------5-7-5--5-7-10-5--|
B|--------7-10-7----7-10-7---7-10-7-------------------|
G|-9-7-9----------9-----------------------------------|
D|----------------------------------------------------|
A|----------------------------------------------------|
E|----------------------------------------------------|

Guitar 2
e|-------14--------14h17p14----14---------|
B|----15----15--------------17----17-15~--|
G|-16----------16~------------------------|
D|----------------------------------------|
A|----------------------------------------|
E|----------------------------------------|

Guitar 1
e|------------------------------------------------|
B|------------------------------------------------|
G|-11-9-11--9-7-9--7-4-7--11-9-11--9-7-9--7-4-7---|
D|------------------------------------------------|
A|------------------------------------------------|
E|------------------------------------------------|

Guitar 2
e|-------14-----------------------------------|
B|----15----15--------------------------------|
G|-16----------16-14~-------------------------|
D|--------------------------------------------|
A|--------------------------------------------|
E|--------------------------------------------|

Guitar 1
e|----------------------------------------------10-12-12/14-12p10-----|
B|--------7-10-7----7-10-7--7-10/12-12-12-10-7--------------------12~-|
G|-9-7-9----------9---------------------------------------------------|
D|--------------------------------------------------------------------|
A|--------------------------------------------------------------------|
E|--------------------------------------------------------------------|

Guitar 2
e|----------------------------------------------14------|
B|-------------15-14----------15-17-15-------15----15~--|
G|----------16-------16-14-16----------16-14------------|
D|------------------------------------------------------|
A|------------------------------------------------------|
E|------------------------------------------------------|

Guitar 1
e|---------------------10h12-10----10-12/14-14-12h14-12-----10-12---------|
B|-12-12-10-12/15-12~-----------12----------------------\12--------10~----|
G|------------------------------------------------------------------------|
D|------------------------------------------------------------------------|
A|------------------------------------------------------------------------|
E|------------------------------------------------------------------------|

Guitar 2
e|--------------------------10--------------------------|
B|-----------------------------12-10--------------------|
G|-----------------------------------11-9-11-9----------|
D|---------------------------------------------12-9~----| 
A|------------------------------------------------------|
E|------------------------------------------------------|

Guitar 1
e|-10h12-10----10-12/14-14-12h14p12---------|
B|----------12----------------------15-10~--|
G|------------------------------------------|
D|------------------------------------------|
A|------------------------------------------|
E|------------------------------------------|

Guitar 2 
e|------------------------------------------------------------|
B|-----------------------------------------7h10-7---7h10-7~---|
G|------------------------------------------------9-----------|
D|------------------------------------------------------------| 
A|------------------------------------------------------------|
E|------------------------------------------------------------|

Guitar 1
e|-10h12-10----10-12/14-14-12h14-12-----10-12---------|
B|----------12----------------------\12--------10~----|
G|----------------------------------------------------|
D|----------------------------------------------------|
A|----------------------------------------------------|
E|----------------------------------------------------|

Guitar 2
e|-7h10p7---------------|
B|--------7h10p7--------|
G|---------------7h9p7--|
D|----------------------| x5
A|----------------------|
E|----------------------|

Guitar 1
e|-10h12-10----10-12/14-14-12h14p12---------|
B|----------12----------------------15-10~--|
G|------------------------------------------|
D|------------------------------------------|
A|------------------------------------------|
E|------------------------------------------|

Guitar 2
e|-----------------------------------7h10p7~--|
B|-7h8p7--------------------------------------|
G|-------9-7~---------------------------------|
D|--------------------------------------------|
A|--------------------------------------------|
E|--------------------------------------------|


[Outro]

Guitar 1
e|-----------0-------|
B|-----3-------3-----|
G|---2---2-------2---| x10
D|-0-------0---------|
A|-------------------|
E|-------------------|

End on a strum of D major.

Guitar 2 right at the end
e|-\10-9-7h9p7----|
B|-------------7~-|
G|----------------|
D|----------------|
A|----------------|
E|----------------|


************************************

| (n) Bend pitch should be
| h   Hammer-on
| p   Pull-off
| b   Bend
| br  Bend release
| /   Slide up
| \   Slide down
| ~   Let ring/vibrato

************************************

            
            
Suggest correction
Creating personal tab
Creating personal tab
You can edit any tab online and save it as your Personal.

You can edit, replace or remove any tab part or add personal notes – all changes will be seen only by you.

Personal tabs can be accessed anytime from any device, even offline.
Learn more »
Give kudos to tab author, rate the tab!
1 2 3 4 5
comments
print report bad tab
guest
You may want to rate the tab now too:
select rating
Wanna post a correction for this tab? Suggest correction