Oops, an error
Loading. Please wait.

Remembrance Day tab

37 views 1 this week
no commentswrite comment
1 2 3 4 5
3 more votes to show rating
add to favorites
×
Save as Personal and add changes to this tab that will be seen only by you. Learn more ›
×
You can save this tab as Personal to edit and correct it or add notes. All changes will be seen only by you. Learn more »
launch autoscroll
font size
0
reset
how to read this tab
guitar tuner
edit
Autoscroll
slow
fast
+/-
esc
set tempo
stop
[Intro]
[0:00]
e|------------------------------------------------------------------|
B|------------------------------------------------------------------|
G|------------------------------------------------------------------|
D|-2p0-0-0-4p0-0-0-7p0-0-0-9p0-0-0-2p0-0-0-4p0-0-0-2p0-0-0-4p0-0-0--|
A|------------------------------------------------------------------|
E|------------------------------------------------------------------|
                                                             
[0:05]
e|--------------------------------------------------------|
B|--------------------------------------------------------|
G|--------------------------------------------------4--4--|
D|-2p0-0-0-4p0-0-0-7p0-0-0-9p0-0-0-2p0-0-0-4p0-0-0--4--4--|
A|--------------------------------------------------2--2--|
E|--------------------------------------------------------|

[0:08]
e|------------------------------------------------------------------|
B|------------------------------------------------------------------|
G|------------------------------------------------------------------|
D|-2p0-0-0-4p0-0-0-7p0-0-0-9p0-0-0-2p0-0-0-4p0-0-0-2p0-0-0-4p0-0-0--|
A|------------------------------------------------------------------|
E|------------------------------------------------------------------|
                                                             
[0:12]
e|--------------------------------------------------------|
B|--------------------------------------------------------|
G|--------------------------------------------------4--4--|
D|-2p0-0-0-4p0-0-0-7p0-0-0-9p0-0-0-2p0-0-0-4p0-0-0--4--4--|
A|--------------------------------------------------2--2--|
E|--------------------------------------------------------|

[Verse 1]
[00:17]
Guitar 1 - main chords
e|---------------------|
B|---------------------|
G|-4-4--7-7-------4-4--| x4
D|-4-4--7-7--7-7--4-4--|
A|-2-2--5-5--7-7--2-2--|
E|-----------5-5-------|

[00:17]
Guitar 2 - in background
e|-----------------------------------------------------|
B|----10-12-10----10-12-10-12-10-12----10----10-12-10--|
G|-11----------11-------------------11----11-----------| x4
D|-----------------------------------------------------|
A|-----------------------------------------------------|
E|-----------------------------------------------------|

[Pre-Chorus]
[00:33]
e|------------------------------------------------------------------|
B|------------------------------------------------------------------|
G|------------------------------------------------------------------|
D|-2p0-0-0-4p0-0-0-2p0-0-0-4p0-0-0-2p0-0-0-4p0-0-0-2p0-0-0-4p0-0-0--|
A|------------------------------------------------------------------|
E|------------------------------------------------------------------|

[00:38]
e|--------------------------------------------------------|
B|--------------------------------------------------------|
G|--------------------------------------------------4--4--|
D|-2p0-0-0-4p0-0-0-2p0-0-0-4p0-0-0-2p0-0-0-4p0-0-0--4--4--|
A|--------------------------------------------------2--2--|
E|--------------------------------------------------------|

[00:41]
e|-----------------------------------------------------|
B|----10-12-10----10-12-10-12-10-12----10----10-12-10--|
G|-11----------11-------------------11----11-----------| x2
D|-----------------------------------------------------|
A|-----------------------------------------------------|
E|-----------------------------------------------------|

[Chorus]
[00:50]
e|-------------------------------------------------|
B|-------------------------------------------------|
G|-------------------7--7--------------------7--7--|
D|-9--9--7--7--9--9--7--7--9--9--7--7--5--5--7--7--| x2
A|-9--9--7--7--9--9--5--5--9--9--7--7--5--5--5--5--|
E|-7--7--5--5--7--7--------7--7--5--5--3--3--------|

[Interlude]
[01:05]
e|------------------------------------------------------------------|
B|------------------------------------------------------------------|
G|------------------------------------------------------------------|
D|-2p0-0-0-4p0-0-0-7p0-0-0-9p0-0-0-2p0-0-0-4p0-0-0-2p0-0-0-4p0-0-0--|
A|------------------------------------------------------------------|
E|------------------------------------------------------------------|
                                                             
[01:09]
e|--------------------------------------------------------|
B|--------------------------------------------------------|
G|--------------------------------------------------4--4--|
D|-2p0-0-0-4p0-0-0-7p0-0-0-9p0-0-0-2p0-0-0-4p0-0-0--4--4--|
A|--------------------------------------------------2--2--|
E|--------------------------------------------------------|

[Verse 2]
[01:14]
Guitar 1 - main chords
e|---------------------|
B|---------------------|
G|-4-4--7-7-------4-4--| x4
D|-4-4--7-7--7-7--4-4--|
A|-2-2--5-5--7-7--2-2--|
E|-----------5-5-------|

[01:14]
Guitar 2 - in background
e|-----------------------------------------------------|
B|----10-12-10----10-12-10-12-10-12----10----10-12-10--|
G|-11----------11-------------------11----11-----------| x4
D|-----------------------------------------------------|
A|-----------------------------------------------------|
E|-----------------------------------------------------|

[Pre-Chorus 2]
[01:30]
e|------------------------------------------------------------------|
B|------------------------------------------------------------------|
G|------------------------------------------------------------------|
D|-2p0-0-0-4p0-0-0-2p0-0-0-4p0-0-0-2p0-0-0-4p0-0-0-2p0-0-0-4p0-0-0--|
A|------------------------------------------------------------------|
E|------------------------------------------------------------------|

[01:34]
e|--------------------------------------------------------|
B|--------------------------------------------------------|
G|--------------------------------------------------4--4--|
D|-2p0-0-0-4p0-0-0-2p0-0-0-4p0-0-0-2p0-0-0-4p0-0-0--4--4--|
A|--------------------------------------------------2--2--|
E|--------------------------------------------------------|

[01:38}
e|-----------------------------------------------------|
B|----10-12-10----10-12-10-12-10-12----10----10-12-10--|
G|-11----------11-------------------11----11-----------| x2
D|-----------------------------------------------------|
A|-----------------------------------------------------|
E|-----------------------------------------------------|

[Chorus 2]
[01:46]
e|-------------------------------------------------|
B|-------------------------------------------------|
G|-------------------7--7--------------------7--7--|
D|-9--9--7--7--9--9--7--7--9--9--7--7--5--5--7--7--| x2
A|-9--9--7--7--9--9--5--5--9--9--7--7--5--5--5--5--|
E|-7--7--5--5--7--7--------7--7--5--5--3--3--------|

[Solo]
[02:02]
e|--------------------------------------|
B|--------------------------------------|
G|-14p0-0-0-16p0-0-0-14p0-0-0-16p0-0-0--| x2
D|--------------------------------------|
A|--------------------------------------|
E|--------------------------------------|

[02:06]
e|--------------------------------------|
B|-15p0-0-0-17p0-0-0-15p0-0-0-14p0-0-0--|
G|--------------------------------------| x2
D|--------------------------------------|
A|--------------------------------------|
E|--------------------------------------|

[02:10]
e|--------------------------------------|
B|--------------------------------------|
G|-14p0-0-0-16p0-0-0-14p0-0-0-16p0-0-0--| x2
D|--------------------------------------|
A|--------------------------------------|
E|--------------------------------------|

[02:15]
e|--------------------------------------|
B|-15p0-0-0-17p0-0-0-15p0-0-0-14p0-0-0--|
G|--------------------------------------| x2
D|--------------------------------------|
A|--------------------------------------|
E|--------------------------------------|

[02:19]
e|-14p0-0-0-15p0-0-0-14p0-0-0-10p0-0-0--|
B|--------------------------------------|
G|--------------------------------------| x2
D|--------------------------------------|
A|--------------------------------------|
E|--------------------------------------|

[02:23]
e|--------------------------------------|
B|-15p0-0-0-17p0-0-0-15p0-0-0-14p0-0-0--|
G|--------------------------------------| x2
D|--------------------------------------|
A|--------------------------------------|
E|--------------------------------------|

[02:27]
e|--------------------------------------|
B|--------------------------------------|
G|-14p0-0-0-16p0-0-0-14p0-0-0-16p0-0-0--| x2
D|--------------------------------------|
A|--------------------------------------|
E|--------------------------------------|

[Bridge]
[02:31]
e|--------------------------------------|
B|--------------------------------------|
G|--------------------------------------|
D|-11p0-0-0-12p0-0-0-11p0-0-0-12p0-0-0--| x2
A|--------------------------------------|
E|--------------------------------------|

[02:34]
e|--------------------------------------|
B|--------------------------------------|
G|--------------------------------------|
D|-12p0-0-0-16p0-0-0-12p0-0-0-16p0-0-0--| x2
A|--------------------------------------|
E|--------------------------------------|

[02:39]
e|--------------------------------------|
B|--------------------------------------|
G|--------------------------------------|
D|-11p0-0-0-12p0-0-0-11p0-0-0-12p0-0-0--| x2
A|--------------------------------------|
E|--------------------------------------|

[02:43]
e|--------------------------------------|
B|--------------------------------------|
G|--------------------------------------|
D|-12p0-0-0-16p0-0-0-12p0-0-0-16p0-0-0--| x2
A|--------------------------------------|
E|--------------------------------------|

[02:47]
e|--------------------------------------|
B|--------------------------------------|
G|--------------------------------------|
D|-11p0-0-0-12p0-0-0-11p0-0-0-12p0-0-0--| x2
A|--------------------------------------|
E|--------------------------------------|

[02:51]
e|--------------------------------------|
B|--------------------------------------|
G|--------------------------------------|
D|-12p0-0-0-16p0-0-0-12p0-0-0-16p0-0-0--| x2
A|--------------------------------------|
E|--------------------------------------|

[02:55]
e|--------------------------------------|
B|--------------------------------------|
G|--------------------------------------|
D|-11p0-0-0-12p0-0-0-11p0-0-0-12p0-0-0--| x2
A|--------------------------------------|
E|--------------------------------------|

[02:59]                                     [3:02]
e|------------------------------------------------17-15-14--------|
B|---------------------------------------------------------15-----|
G|---------------------------------------------14-------------14--|
D|-12p0-0-0-16p0-0-0-12p0-0-0-16p0-0-0--12------------------------| 
A|----------------------------------------------------------------|
E|----------------------------------------------------------------|

[Chorus 3]
[03:04]
e|-------------------------------------------------|
B|-------------------------------------------------|
G|-------------------7--7--------------------7--7--|
D|-9--9--7--7--9--9--7--7--9--9--7--7--5--5--7--7--| x2
A|-9--9--7--7--9--9--5--5--9--9--7--7--5--5--5--5--|
E|-7--7--5--5--7--7--------7--7--5--5--3--3--------|

[03:20]
e|--------------------------------------|
B|--------------------------------------|
G|--------------------------------------|
D|-11p0-0-0-12p0-0-0-11p0-0-0-12p0-0-0--| x13
A|--------------------------------------|
E|--------------------------------------|

[03:46]
e|----------------------------------------|
B|----------------------------------------|
G|----------------------------------------|
D|-11p0-0-0-12p0-0-0-11p0-0-0-12p0-0-0-0--| 
A|----------------------------------------|
E|----------------------------------------|

[Chorus 4]
[03:52]
e|-------------------------------------------------|
B|-------------------------------------------------|
G|-------------------7--7--------------------7--7--|
D|-9--9--7--7--9--9--7--7--9--9--7--7--5--5--7--7--| x2
A|-9--9--7--7--9--9--5--5--9--9--7--7--5--5--5--5--|
E|-7--7--5--5--7--7--------7--7--5--5--3--3--------|

[Outro]
[04:07]
e|-17-14-----14-------------------------17-14--|
B|-------15-----17-15--------15------15--------|
G|------------------------14-----14------------| repeat until
D|---------------------16----------------------| fades out.
A|---------------------------------------------|
E|---------------------------------------------|



************************************

| p  Pull-off

************************************

            
            
Suggest correction
Creating personal tab
Creating personal tab
You can edit any tab online and save it as your Personal.

You can edit, replace or remove any tab part or add personal notes – all changes will be seen only by you.

Personal tabs can be accessed anytime from any device, even offline.
Learn more »
Give kudos to tab author, rate the tab!
1 2 3 4 5
comments
print report bad tab
guest
You may want to rate the tab now too:
select rating
Wanna post a correction for this tab? Suggest correction