Oops, an error
Loading. Please wait.

Republican Party Reptile Tab

10 views 1 this week
no commentswrite comment
1 2 3 4 5
2 more votes to show rating
add to favorites
launch autoscroll
font size
0
reset
how to read this tab
guitar tuner
Autoscroll
slow
fast
+/-
esc
set tempo
stop
Help us to improve Ultimate-Guitar.com Take our survey!
×
Author
Difficulty
intermediate
About this tab version
This is the album version of the song and the only version on here as of right now. Was this info helpful? Yes No
Tuning is EAEAC#E which is Open A


[Intro]

e|---------------------------------/12-------/12-------/15--/12------------------------|
B|-0-3-0-3/5--0-/5-5\3-0-3-0--/12------12--------12-------------12---------------------|
G|-0-3-0-3/5--0-/5-5\3-0-3-0--/12---------12--------12-------------12-10-10/12---------|
D|-0-3-0-3/5--0-/5-5\3-0-3-0--/12----------------------------------------------10b(12)-|
A|-0-3-0-3/5--0-/5-5\3-0-3-0--/12------------------------------------------------------|
E|-------------------------------------------------------------------------------------|

e|------------------------------------------------|
B|-/12------12----12----12----/12--14-14-14b(15)--|
G|-/12---10----10----10----10---------------------|
D|-/12--------------------------------------------|
A|-/12--------------------------------------------|
E|------------------------------------------------|


[Verse]

e|------------------|
B|------------------|
G|-0-0-0-0-5-5-3-3--|
D|-0-0-0-0-5-5-3-3--| x4 
A|-0-0-0-0-5-5-3-3--|
E|------------------|

e|-15/17-17/20-20-15-15-15/17---------15/17-17-17\------15----15----15\--|
B|----------------------------15--------------------/15----15----15------|
G|-------------------------------15\-------------------------------------|
D|-----------------------------------------------------------------------|
A|-----------------------------------------------------------------------|
E|-----------------------------------------------------------------------|

e|------------------|
B|------------------|
G|-0-0-0-0-5-5-3-3--|
D|-0-0-0-0-5-5-3-3--| x4 
A|-0-0-0-0-5-5-3-3--|
E|------------------|

[Pre-Chorus]

e|---------------------------------------|
B|---------------------------------------|
G|-7-7-7-7-7-7-10-9-7--7-7-7-7-7-7-7-7---|
D|-7-7-7-7-7-7-10-9-7--7-7-7-7-7-7-7-7---|
A|-7-7-7-7-7-7-10-9-7--7-7-7-7-7-7-7-7---|
E|---------------------------------------|


[Chorus]

e|-------------------/8------------------|
B|------------/8-6-8----8-6-6-6/8--------|
G|-0~--5~-3~----------------------5b(7)--|
D|-0~--5~-3~-----------------------------|
A|-0~--5~-3~-----------------------------|
E|---------------------------------------|

e|-------------------/8---10b(12)--------|
B|------------/8-6-8----8----------------|
G|-0~--5~-3~-----------------------------|
D|-0~--5~-3~-----------------------------|
A|-0~--5~-3~-----------------------------|
E|---------------------------------------|

[Verse 2]

Guitar 1
e|---------------------------------|
B|---------------------------------|
G|-0-0-0-0-5-5-3-3-0-0-0-0-5-5-3-3-|
D|-0-0-0-0-5-5-3-3-0-0-0-0-5-5-3-3-|  
A|-0-0-0-0-5-5-3-3-0-0-0-0-5-5-3-3-|
E|---------------------------------|

Guitar 2
e|---------------------------------|
B|-----------6-6-6-6-6/8-----------|
G|---------------------------------|
D|---------------------------------|
A|---------------------------------|
E|---------------------------------|

Guitar 1
e|---------------------------------|
B|---------------------------------|
G|-0-0-0-0-5-5-3-3-0-0-0-0-5-5-3-3-|
D|-0-0-0-0-5-5-3-3-0-0-0-0-5-5-3-3-|  
A|-0-0-0-0-5-5-3-3-0-0-0-0-5-5-3-3-|
E|---------------------------------|

Guitar 2
e|---------------------------------|
B|-----------6-6-6/8---------------|
G|-------------------6b(8)---------|
D|---------------------------------|
A|---------------------------------|
E|---------------------------------|

[Chorus 2]

e|-------------------/8----12-------12-------/15-/15-/15~-|
B|------------/8-6-8----8-----12-------12-----------------|
G|-0~--5~-3~---------------------12-------12--------------|
D|-0~--5~-3~----------------------------------------------|
A|-0~--5~-3~----------------------------------------------|
E|--------------------------------------------------------|

e|-------------------/8------------------|
B|------------/8-6-8----8--6-6-6-6-6/8---|
G|-0~--5~-3~-----------------------------|
D|-0~--5~-3~-----------------------------|
A|-0~--5~-3~-----------------------------|
E|---------------------------------------|

[Post-Chorus]

e|---------------------------------------|
B|---------------------------------------|
G|-7-7-7-7-7-7-10-9-7--7-7-7-7-7-7-7-7---|
D|-7-7-7-7-7-7-10-9-7--7-7-7-7-7-7-7-7---|
A|-7-7-7-7-7-7-10-9-7--7-7-7-7-7-7-7-7---|
E|---------------------------------------|

[Solo]

e|-20-20-20/22-20-19------|
B|-------------------15/--|
G|------------------------|
D|------------------------|
A|------------------------|
E|------------------------|

e|-------------------------------------------|
B|-------------------12---------------12-----|
G|-----12-----12--------12-----12--------12--|
D|-/12----/12----/12-------/12----/12--------| x2
A|-------------------------------------------|
E|-------------------------------------------|

e|------------------------------------------------------------------------------------------|
B|-------12-13-12----/15-/12-----------12-13-12----/15~-------12-13-12-----/15-/12----------|
G|----12----------12---------12-----12----------12---------12-----------12---------12--5/7--|
D|-12----------------------------12---------------------12-----------------------------5/7--|
A|-------------------------------------------------------------------------------------5/7--|
E|------------------------------------------------------------------------------------------|

[Verse 3]

Guitar 1
e|---------------------------------|
B|---------------------------------|
G|-0-0-0-0-5-5-3-3-0-0-0-0-5-5-3-3-|
D|-0-0-0-0-5-5-3-3-0-0-0-0-5-5-3-3-|  
A|-0-0-0-0-5-5-3-3-0-0-0-0-5-5-3-3-|
E|---------------------------------|

Guitar 2
e|--------------12-----------------|
B|-----------12----12p10----12b----|
G|-----------------------12--------|
D|---------------------------------|
A|---------------------------------|
E|---------------------------------|

Guitar 1
e|---------------------------------|
B|---------------------------------|
G|-0-0-0-0-5-5-3-3-0-0-0-0-5-5-3-3-|
D|-0-0-0-0-5-5-3-3-0-0-0-0-5-5-3-3-|  
A|-0-0-0-0-5-5-3-3-0-0-0-0-5-5-3-3-|
E|---------------------------------|

Guitar 2
e|-----------17-17-17-17-17\-------|
B|---------------------------------|
G|---------------------------------|
D|---------------------------------|
A|---------------------------------|
E|---------------------------------|


Guitar 1
e|---------------------------------|
B|---------------------------------|
G|-0-0-0-0-5-5-3-3-0-0-0-0-5-5-3-3-|
D|-0-0-0-0-5-5-3-3-0-0-0-0-5-5-3-3-|  
A|-0-0-0-0-5-5-3-3-0-0-0-0-5-5-3-3-|
E|---------------------------------|

Guitar 2
e|---------------------------------|
B|-----------14-14-14-14b(15)------|
G|---------------------------------|
D|---------------------------------|
A|---------------------------------|
E|---------------------------------|

Guitar 1
e|---------------------------------|
B|---------------------------------|
G|-0-0-0-0-5-5-3-3-0-0-0-0-5-5-3-3-|
D|-0-0-0-0-5-5-3-3-0-0-0-0-5-5-3-3-|  
A|-0-0-0-0-5-5-3-3-0-0-0-0-5-5-3-3-|
E|---------------------------------|

Guitar 2
e|---------------------------------|
B|-----------6-6-6/8---------------|
G|-------------------5b(7)---------|
D|---------------------------------|
A|---------------------------------|
E|---------------------------------|

[Pre-Chorus]

e|---------------------|
B|---------------------|
G|-7-7-7-7-7-7-10-9-7--|
D|-7-7-7-7-7-7-10-9-7--|
A|-7-7-7-7-7-7-10-9-7--|
E|---------------------|


[Chorus]

e|-------------------/8------------------|
B|------------/8-6-8----8-6-6-6/8--------|
G|-0~--5~-3~----------------------5b(7)--|
D|-0~--5~-3~-----------------------------|
A|-0~--5~-3~-----------------------------|
E|---------------------------------------|

e|-------------------/8---17-17-17-17-15-15-15\--|
B|------------/8-6-8----8------------------------|
G|-0~--5~-3~-------------------------------------|
D|-0~--5~-3~-------------------------------------|
A|-0~--5~-3~-------------------------------------|
E|-----------------------------------------------|


e|-------------------/8------------------|
B|------------/8-6-8----8-14-14-14b(15)--|
G|-0~--5~-3~-----------------------------|
D|-0~--5~-3~-----------------------------|
A|-0~--5~-3~-----------------------------|
E|---------------------------------------|

e|-------------------------------------|
B|------------/8-6-8-8~-8-8-8p6--------|
G|-0~--5~-3~--------------------5-5/7--|
D|-0~--5~-3~---------------------------|
A|-0~--5~-3~---------------------------|
E|-------------------------------------|

[Outro]

e|-------------------------------------------|
B|-------------------12---------------12-----|
G|-----12-----12--------12-----12--------12--|
D|-/12----/12----/12-------/12----/12--------| x2
A|-------------------------------------------|
E|-------------------------------------------|

e|------------------------------------------------------------------------------------------|
B|-------12-13-12----/15-/12-----------12-13-12----/15~-------12-13-12-----/15-/12----------|
G|----12----------12---------12-----12----------12---------12-----------12---------12--5/7--|
D|-12----------------------------12---------------------12-----------------------------5/7--|
A|-------------------------------------------------------------------------------------5/7--|
E|------------------------------------------------------------------------------------------|

e|-------8----|
B|-8-6-8---8--|
G|------------|
D|------------|
A|------------|
E|------------|

************************************

| h   Hammer-on
| p   Pull-off
| r   Release
| b   Bend
|(x)  Bend pitch
| \   Slide down
| ~   Vibrato

************************************
Suggest correction
Give kudos to tab author, rate the tab!
1 2 3 4 5
comments
print report bad tab
guest
You may want to rate the tab now too:
select rating
Wanna post a correction for this tab? Suggest correction