Oops, an error
Loading. Please wait.

The Seer Tab

34 views 1 this week
no commentswrite comment
1 2 3 4 5
3 more votes to show rating
add to favorites
launch autoscroll
font size
0
reset
how to read this tab
guitar tuner
Autoscroll
slow
fast
+/-
esc
set tempo
stop
Help us to improve Ultimate-Guitar.com Take our survey!
×
Author
Difficulty
intermediate
About this tab version
This is the album version of the song and the only version on here as of right now. Was this info helpful? Yes No
[Intro/Verse] 
e|-1/3-3-3-3-3p1-1-1-1-1h3-3-3-3--------------|
B|-------------------------------3-3-3-3-3-3--|
G|--------------------------------------------|
D|--------------------------------------------|
A|--------------------------------------------|
E|--------------------------------------------|
                                                  x4
e|-1/3-3-3-3-3p1-1-1-1-1h3-3-3-3--------------|
B|--------------------------------------------|
G|-------------------------------0-0-0-0-0-0--|
D|--------------------------------------------|
A|--------------------------------------------|
E|--------------------------------------------|

e|-10-10--8--8---10-10\--|
B|-11-11--10-10--11-11\--|
G|-----------------------|
D|-----------------------| x2
A|-----------------------|
E|-----------------------|

e|-1/3-3-3-3-3p1-1-1-1-1h3-3-3-3--------------|
B|-------------------------------3-3-3-3-3-3--|
G|--------------------------------------------|
D|--------------------------------------------|
A|--------------------------------------------|
E|--------------------------------------------|
                                                  x2
e|-1/3-3-3-3-3p1-1-1-1-1h3-3-3-3--------------|
B|--------------------------------------------|
G|-------------------------------0-0-0-0-0-0--|
D|--------------------------------------------|
A|--------------------------------------------|
E|--------------------------------------------|

e|-10-10--8--8---10-10\--|
B|-11-11--10-10--11-11\--|
G|-----------------------|
D|-----------------------| x2
A|-----------------------|
E|-----------------------|

e|-------5---------------8-----------------12-----------------12---------|
B|---6-----6-------10------10--------13-------13--------13-------13------|
G|-7---7-----7--10----10------10--12----12-------12--12----12-------12---|
D|-----------------------------------------------------------------------|
A|-----------------------------------------------------------------------|
E|-----------------------------------------------------------------------|

e|----------13-----------------15--------------7------------7-------|
B|----15-------15--------17-------17-------9-----9------9-----9-----|
G|-15----15-------15--17----17-------17--9---9-----9--9---9-----9---|
D|------------------------------------------------------------------|
A|------------------------------------------------------------------|
E|------------------------------------------------------------------|

e|-1/3-3-3-3-3p1-1-1-1-1h3-3-3-3--------------|
B|-------------------------------3-3-3-3-3-3--|
G|--------------------------------------------|
D|--------------------------------------------|
A|--------------------------------------------|
E|--------------------------------------------|
                                                  x2
e|-1/3-3-3-3-3p1-1-1-1-1h3-3-3-3--------------|
B|--------------------------------------------|
G|-------------------------------0-0-0-0-0-0--|
D|--------------------------------------------|
A|--------------------------------------------|
E|--------------------------------------------|

e|-10-10--8--8---10-10\--|
B|-11-11--10-10--11-11\--|
G|-----------------------|
D|-----------------------| x2
A|-----------------------|
E|-----------------------|

e|-------5---------------8-----------------12-----------------12---------|
B|---6-----6-------10------10--------13-------13--------13-------13------|
G|-7---7-----7--10----10------10--12----12-------12--12----12-------12---|
D|-----------------------------------------------------------------------|
A|-----------------------------------------------------------------------|
E|-----------------------------------------------------------------------|

e|----------13-----------------15--------------7------------7-------|
B|----15-------15--------17-------17-------9-----9------9-----9-----|
G|-15----15-------15--17----17-------17--9---9-----9--9---9-----9---|
D|------------------------------------------------------------------|
A|------------------------------------------------------------------|
E|------------------------------------------------------------------|

e|-1/3-3-3-3-3p1-1-1-1-1h3-3-3-3--------------|
B|-------------------------------3-3-3-3-3-3--|
G|--------------------------------------------|
D|--------------------------------------------|
A|--------------------------------------------|
E|--------------------------------------------|
                                                  
e|-1/3-3-3-3-3p1-1-1-1-1h3-3-3-3--------------|
B|--------------------------------------------|
G|-------------------------------0-0-0-0-0-0--|
D|--------------------------------------------|
A|--------------------------------------------|
E|--------------------------------------------|

e|-------5---------------8-----------------12-----------------12---------|
B|---6-----6-------10------10--------13-------13--------13-------13------|
G|-7---7-----7--10----10------10--12----12-------12--12----12-------12---|
D|-----------------------------------------------------------------------|
A|-----------------------------------------------------------------------|
E|-----------------------------------------------------------------------|

e|----------13-----------------15--------------7------------7-------|
B|----15-------15--------17-------17-------9-----9------9-----9-----|
G|-15----15-------15--17----17-------17--9---9-----9--9---9-----9---|
D|------------------------------------------------------------------|
A|------------------------------------------------------------------|
E|------------------------------------------------------------------|

Even now...
e|-8---10-7--|
B|-8---12-8--|
G|-9---12-9--|
D|-10--12-9--| x2
A|-10--10-7--|
E|-8---------|

e|-10-10--10-10--7-7--8--8---10--10-7--|
B|-12-12--10-10--8-8--8--8---10--12-8--|
G|-12-12--11-11--9-9--9--9---11--12-9--|
D|-12-12--12-12--9-9--10-10--12--12-9--|
A|-10-10--12-12--7-7--10-10--12--10-7--|
E|--------10-10-------8--8---10--------|

e|-10-10--10-10--7-7--8--8---10--10-7--10-7--10--8---10-10---|
B|-12-12--10-10--8-8--8--8---10--12-8--10-8--12--8---12-10---|
G|-12-12--11-11--9-9--9--9---11--12-9--12-9--12--9---12-11---|
D|-12-12--12-12--9-9--10-10--12--12-9--12-9--12--10--12-12---|
A|-10-10--12-12--7-7--10-10--12--10-7--10-7--10--10--10-12---|
E|--------10-10-------8--8---10------------------8------10---|

[Solo]
e|-7p5-----7p5-----7p5-----7p5-----7p5-----7p5-----7p5---7p5---7p5-----------|
B|-----8-5-----8-5-----8-5-----8-5-----8-5-----8-5-----8-----8-----8-5-------|
G|---------------------------------------------------------------------------|
D|---------------------------------------------------------------------------|
A|---------------------------------------------------------------------------|
E|---------------------------------------------------------------------------|

e|-7p5-----7p5-----7p5---------10-------12-10---7h10p7----|
B|-----8-5-----8-5-----8-5--\8----10-12----------------8--|
G|--------------------------------------------------------|
D|--------------------------------------------------------|
A|--------------------------------------------------------|
E|--------------------------------------------------------|

e|-10p7------10p7------10p7------12-10--19-17--15h17p15------|
B|------10-8------10-8------10-8------------------------17---|
G|-----------------------------------------------------------|
D|-----------------------------------------------------------|
A|-----------------------------------------------------------|
E|-----------------------------------------------------------|

e|-15----------15----------15----------15-----------
B|----17-15-------17-15-------17-15-------17-15-----
G|----------16----------16----------16----------16--
D|--------------------------------------------------
E|--------------------------------------------------

e|-15----14----12----10---------------------------------------------------|
B|----17----15----12----12-13-12-10-12-10-8---8-----------8---8-10\11-----|
G|------------------------------------------9---9-7---7-9---9-------------|
D|--------------------------------------------------9---------------------|
A|------------------------------------------------------------------------|
E|------------------------------------------------------------------------|

[Verse]
e|-1/3-3-3-3-3p1-1-1-1-1h3-3-3-3--------------|
B|-------------------------------3-3-3-3-3-3--|
G|--------------------------------------------|
D|--------------------------------------------|
A|--------------------------------------------|
E|--------------------------------------------|
                                                 x2
e|-1/3-3-3-3-3p1-1-1-1-1h3-3-3-3--------------|
B|--------------------------------------------|
G|-------------------------------0-0-0-0-0-0--|
D|--------------------------------------------|
A|--------------------------------------------|
E|--------------------------------------------|

e|-10-10--8--8---10-10\--|
B|-11-11--10-10--11-11\--|
G|-----------------------|
D|-----------------------| x2
A|-----------------------|
E|-----------------------|

e|-------5---------------8-----------------12-----------------12---------|
B|---6-----6-------10------10--------13-------13--------13-------13------|
G|-7---7-----7--10----10------10--12----12-------12--12----12-------12---|
D|-----------------------------------------------------------------------|
A|-----------------------------------------------------------------------|
E|-----------------------------------------------------------------------|

e|----------13-----------------15--------------7------------7-------|
B|----15-------15--------17-------17-------9-----9------9-----9-----|
G|-15----15-------15--17----17-------17--9---9-----9--9---9-----9---|
D|------------------------------------------------------------------|
A|------------------------------------------------------------------|
E|------------------------------------------------------------------|

Even now...
e|-8---10-7--|
B|-8---12-8--|
G|-9---12-9--|
D|-10--12-9--| x2
A|-10--10-7--|
E|-8---------|

e|-10-10--10-10--7-7--8--8---10--10-7--|
B|-12-12--10-10--8-8--8--8---10--12-8--|
G|-12-12--11-11--9-9--9--9---11--12-9--|
D|-12-12--12-12--9-9--10-10--12--12-9--|
A|-10-10--12-12--7-7--10-10--12--10-7--|
E|--------10-10-------8--8---10--------|

e|-10-10--10-10--7-7--8--8---10--10-7--10-7--10--8---10-10---|
B|-12-12--10-10--8-8--8--8---10--12-8--10-8--12--8---12-10---|
G|-12-12--11-11--9-9--9--9---11--12-9--12-9--12--9---12-11---|
D|-12-12--12-12--9-9--10-10--12--12-9--12-9--12--10--12-12---|
A|-10-10--12-12--7-7--10-10--12--10-7--10-7--10--10--10-12---|
E|--------10-10-------8--8---10------------------8------10---|

[Solo 2]
e|-7p5-----7p5-----7p5-----7p5-----7p5-----7p5-----7p5---7p5---7p5-----------|
B|-----8-5-----8-5-----8-5-----8-5-----8-5-----8-5-----8-----8-----8-5-------|
G|---------------------------------------------------------------------------|
D|---------------------------------------------------------------------------|
A|---------------------------------------------------------------------------|
E|---------------------------------------------------------------------------|

e|-7p5-----7p5-----7p5---------10-------12-10---7h10p7----|
B|-----8-5-----8-5-----8-5--\8----10-12----------------8--|
G|--------------------------------------------------------|
D|--------------------------------------------------------|
A|--------------------------------------------------------|
E|--------------------------------------------------------|

e|-10p7------10p7------10p7------10p7------10p7------10p7------10p7----10p7----10p7-------|
B|------10-8------10-8------10-8------10-8------10-8------10-8------10------10------10-8--|
G|----------------------------------------------------------------------------------------|
D|----------------------------------------------------------------------------------------|
A|----------------------------------------------------------------------------------------|
E|----------------------------------------------------------------------------------------|

e|-10p7------10p7------10p7------10p7-------\12-10--20-20-20-19---|
B|------10-8------10-8------10-8------10-8------------------------|
G|----------------------------------------------------------------|
D|----------------------------------------------------------------|
A|----------------------------------------------------------------|
E|----------------------------------------------------------------|

e|-15----------15----------15----------15-----------
B|----17-15-------17-15-------17-15-------17-15-----
G|----------16----------16----------16----------16--
D|--------------------------------------------------
E|--------------------------------------------------

e|-15----14----12----10---------------------------------------------------|
B|----17----15----12----12-13-12-10-12-10-8---8-----------8---8-10\11-----|
G|------------------------------------------9---9-7---7-9---9-------------|
D|--------------------------------------------------9---------------------|
A|------------------------------------------------------------------------|
E|------------------------------------------------------------------------|

[Outro]
e|-1/3-3-3-3-3p1-1-1-1-1h3-3-3-3--------------|
B|-------------------------------3-3-3-3-3-3--|
G|--------------------------------------------|
D|--------------------------------------------|
A|--------------------------------------------|
E|--------------------------------------------|
                                                x2
e|-1/3-3-3-3-3p1-1-1-1-1h3-3-3-3--------------|
B|--------------------------------------------|
G|-------------------------------0-0-0-0-0-0--|
D|--------------------------------------------|
A|--------------------------------------------|
E|--------------------------------------------|

e|-10-10--8--8---10-10\--|
B|-11-11--10-10--11-11\--|
G|-----------------------|
D|-----------------------| x2
A|-----------------------|
E|-----------------------|

e|-------5---------------8-----------------12-----------------12---------|
B|---6-----6-------10------10--------13-------13--------13-------13------|
G|-7---7-----7--10----10------10--12----12-------12--12----12-------12---|
D|-----------------------------------------------------------------------|
A|-----------------------------------------------------------------------|
E|-----------------------------------------------------------------------|

e|----------13-----------------15--------7-7-7--|
B|----15-------15--------17-------17-----9-9-9--|
G|-15----15-------15--17----17-------17--9-9-9--|
D|----------------------------------------------|
A|----------------------------------------------|
E|----------------------------------------------|
  

************************************

| x  Dead note
| h  Hammer-on
| p  Pull-off
| /  Slide up
| \  Slide down

************************************
Suggest correction
Give kudos to tab author, rate the tab!
1 2 3 4 5
comments
print report bad tab
guest
You may want to rate the tab now too:
select rating
Wanna post a correction for this tab? Suggest correction