Oops, an error
Loading. Please wait.

Prom Do Sztokholmu Bass Tab

395 views 1 this week
no commentswrite comment
1 2 3 4 5
3 more votes to show rating
add to favorites
launch autoscroll
font size
0
reset
guitar tuner
Autoscroll
slow
fast
+/-
esc
set tempo
stop
Help us to improve Ultimate-Guitar.com Take our survey!
×
Big Cyc
Prom Do Sztokholmu bass
tab by: FLIP funkaybass@gmail.com

Zestrój bas o pół tonu niżej.

Intro:
G-------------------------------------|
D---------------xxxx33-2--------------|
A--------33333------------------------|
E--55555------------------------------|

Zwrotka:
G-------------------------------------|
D-------------------------------------|
A---------333-33---555-55-------------|
E--555-55------------------11-00------|

Potem:
G----------------------------------|
D----------------------------------|
A----------------------------------|
E----55-xxxx-33-xxxx-22-xxxx-1-2-3-|

Refren:
G------------------------------------------------------------------|
D------------------------------------------------------------------|
A---------------55555-5h777777--------------4444444--55555-5h77777-|
E--555555-22222--------------------55555555------------------------|

Podczas solówek na gitarze bas gra to:

G----------------------------|
D----------------------------|
A--------------33--3---------|
E--55--5-33--3--------111-0--|

To wszystko (mniej więcej).

Pozdro
Suggest correction
Give kudos to tab author, rate the tab!
1 2 3 4 5
comments
print report bad tab
guest
You may want to rate the tab now too:
select rating
Wanna post a correction for this tab? Suggest correction