Oops, an error
Loading. Please wait.

Little Bitch tab

version 2
version 2

Whole song

7,907 views 1 this week
7 commentsread comments
1 2 3 4 5
x 9
add to favorites
×
Save as Personal and add changes to this tab that will be seen only by you. Learn more ›
×
You can save this tab as Personal to edit and correct it or add notes. All changes will be seen only by you. Learn more »
launch autoscroll
font size
0
reset
how to read this tab
guitar tuner
edit
Autoscroll
slow
fast
+/-
esc
set tempo
stop
Author
Difficulty
-------------------------------------------------------------------------------
                             Little Bitch – Big D and the Kid’s table
-------------------------------------------------------------------------------
Tabbed by: Dave
Email:

Tuning: standard

The main lick goes a little something like this:
e|-------------------------------------------------------------------------|
B|-------10-10p8-----8----------------10-10-10-10--13-13--15-15-15---------|
G|-------10-10p8-----8—10b12b10r8-----10-10-10-10--13-13--15-15-15---------|
D|---10--10-10p8--10--------------10--10-10-10-10--13-13--15-15-15---------|
A|---10-------------------------------8—-8—-8--8---11-11--13-13-13---------|
E|---8---------------------------------------------------------------------|

and here’s the lovely little solo:
e|--8-----8-8-8-----8-8-8-8-8-----8-8--------------------------------------|
B|--8-----8-8-8-----8-8-8-8-8-----8-8------------------------8-8----8----8-|
G|--10b12-----10b12---------10b12-----10b12b10r8----8-8------8-8----8----8-|
D|-----------------------------------------------10-----10p8-----10---10---|
A|-------------------------------------------------------------------------|
E|-------------------------------------------------------------------------|

e|--8------8-8-11p8--------------------------------------------------------|
B|--8------8-8------11p8------------------11-11----11-11----11-11-11-11-11-|
G|--10b12----------------10b12b10r8---/12------/12------/12----------------|
D|----------------------------------10-------------------------------------|
A|-------------------------------------------------------------------------|
E|-------------------------------------------------------------------------|

e|------------------------------------------13p11-13p11-13/15--------------|
B|----11--13-13p11-11-11----11-13p11-13p11-------------------16-13-13p11---|
G|-12-------------------12----------------------------------------------12\|
D|-------------------------------------------------------------------------|
A|-------------------------------------------------------------------------|
E|-------------------------------------------------------------------------|

e|-------------8-8-8-8--8--8--8-8-----------------------------------------|
B|-------------8-8-8-8--8--8--8-8-----8\-----------------------------------|
G|--8----8—10-10b12b10-10-10-10p8-----8\-----------------------------------|
D|----10---------------------------10--------------------------------------|
A|-------------------------------------------------------------------------|
E|-------------------------------------------------------------------------|

| /  slide up
| \  slide down
| h  hammer-on
| p  pull-off
| ~  vibrato
| +  harmonic
| x  Mute note
===============================================================================

Suggest correction
Creating personal tab
Creating personal tab
You can edit any tab online and save it as your Personal.

You can edit, replace or remove any tab part or add personal notes – all changes will be seen only by you.

Personal tabs can be accessed anytime from any device, even offline.
Learn more »
comments
print report bad tab
7 comments total. Showing first comments.
0 reply
jak_hacksaw 70 Jul 24, 2006 04:17 PM

F*CKING SPOT ON MATE!!

+1 reply
lessthanweezer7 31 Aug 07, 2006 09:27 AM

closer than mine. so i give it a thumbs up.

+1 reply
Orange~Love 37 Oct 01, 2006 05:05 PM

nothing like a good ol' cover

guest
You may want to rate the tab now too:
select rating
Wanna post a correction for this tab? Suggest correction