Oops, an error
Loading. Please wait.

Shining On tab

version 3
version 3

Whole song

7,732 views 1 this week
2 commentsread comments
1 2 3 4 5
x 3
add to favorites
×
Save as Personal and add changes to this tab that will be seen only by you. Learn more ›
×
You can save this tab as Personal to edit and correct it or add notes. All changes will be seen only by you. Learn more »
launch autoscroll
font size
0
reset
how to read this tab
guitar tuner
edit
Autoscroll
slow
fast
+/-
esc
set tempo
stop
Author
-------------------------------------------------------------------------------
               Shining On - Big D And The Kids Table
                         Strictly Rude
-------------------------------------------------------------------------------

Tabbed by: Panji Brotoisworo
Email: panji66(AT)hotmail.com (Replace the 'at')

E-mail me for comments or PM me on my UG Profile - "Esparko"


Legend

| /  slide up
| \  slide down
| b  Bend the string
| h  hammer-on
| p  pull-off
| ~  vibrato
| x  Mute note
================



Tuning: EADGBe



First off, there's that background guitar fill which has reverb and delay
added on to it, it is this.

e|--10--11----------|
B|--10--11----------|
G|--11--12----------|
D|------------------|
A|------------------|
E|------------------|




=======
Verse
=======

Both chords here are played on the upbeat twice before moving on.


e|----------6-------|
B|--8-------6-------|
G|--8-------7-------|
D|--8---------------|
A|------------------|
E|------------------|

========
Chorus
========

Each chord here is played for 4 times except for the last chord
which you strum.

e|----6--8--8-8-8-8---|   
B|-8--6--8--9-9-9-9---|
G|-8--7-----8-8-8-8---| 
D|-8------------------|
A|--------------------|
E|--------------------|


=============
Bridge (1:38)
=============
"Shining down on me..."

Just strum these once

e|----6--7-----|
B|----6--7-----|
G|----7--------|
D|-------------|
A|-------------|
E|-------------|

=======
Solo
=======

These are the chords played over solo
Play each chord 4 times except for the last 3 chords which you just 
strum.

e|----4--3--6--3--4--3--6--4--6--3----|
B|----4--4--6--4--4--4--6--4--6--4----|
G|----5--3--7--3--5--3--7--5--7--3----|
D|------------------------------------|
A|------------------------------------|
E|------------------------------------|





The verse riff is played followed by the chorus
and then it goes back to the final verse.

That's it.
Suggest correction
Creating personal tab
Creating personal tab
You can edit any tab online and save it as your Personal.

You can edit, replace or remove any tab part or add personal notes – all changes will be seen only by you.

Personal tabs can be accessed anytime from any device, even offline.
Learn more »
Give kudos to tab author, rate the tab!
1 2 3 4 5
comments
print report bad tab
2 comments total.
0 reply
StratusX 82 Aug 11, 2009 02:19 AM

It's about time someone had a good tab for this song.

0 reply
CallmeTravis 40 Jul 01, 2010 07:41 AM

This is all correct except that every chorus except the first one goes like so:

---6-8-8---10-8-8-
-8-6-8-9-8-11-8-9-
-8-7---8-8-10---8-
-8-------8--------
------------------
------------------

guest
You may want to rate the tab now too:
select rating
Wanna post a correction for this tab? Suggest correction