Oops, an error
Loading. Please wait.

Every Time I Breathe Tab

version 1
version 1

Intro

4,612 views 3 this week
3 commentsread comments
1 2 3 4 5
x 3
add to favorites
launch autoscroll
font size
0
reset
how to read this tab
guitar tuner
Autoscroll
slow
fast
+/-
esc
set tempo
stop
Help us to improve Ultimate-Guitar.com Take our survey!
×
Difficulty
novice
-------------------------------------------------------------------------------
                             Everytime I Breathe- Big Daddy Weave
-------------------------------------------------------------------------------
Tabbed by: jamuel24
Email: jam_tecus12@hotmail.com

Tuning: Standard
The chord sheet on here is good. I just figured out the intro, which is acutally on the 
but it works on here, too. Enjoy.

e|---------------------------------------------------------------------------|
B|----7/9/7-11-9-7-----9-7---8-7--(3X, then finish with)-8-7-----------------|
G|-----------------9-7-----9---------------------------------7---------------|
D|---------------------------------------------------------------------------|
A|---------------------------------------------------------------------------|
E|---------------------------------------------------------------------------|

If you've got any corrections, let me know. Thanks
Suggest correction
Give kudos to tab author, rate the tab!
1 2 3 4 5
comments
print report bad tab
3 comments total.
0 reply
sirenge 10 Jun 23, 2009 08:51 PM

not to bash it, cause it's close, but it's too high. i watched them play it and it's played closer to the end of the fret board.
kinda like this:
E|-------2---------------3-2--- -3-2---
B|-3-5-5---5-3-0-3-5-3-0------- (3x) then -----3-
G|----------------------------- -------

0 reply
crue917 10 Jul 30, 2009 11:01 PM

e------------------------------------| e------------|
b-------------------------------8-7--| b--8-7/---3--|
g--7h9--9h11--9p7-------9p7----------| (3x) g------------|
d------------------9p7-------9-------| d------------|
a------------------------------------| a------------|
e------------------------------------| e------------|

Yea ur right but i do my version like this ^ :)

0 reply
SheppardRE 10 Jun 17, 2011 12:00 PM

Up until the last measure (and the two last notes of the previous three measures), you had everything written one string too high. Still helped with learning it, though.

guest
You may want to rate the tab now too:
select rating
Wanna post a correction for this tab? Suggest correction