Oops, an error
Loading. Please wait.

Bonnie And Clyde Chords

372 views 1 this week
no commentswrite comment
1 2 3 4 5
please rate
add to favorites
launch autoscroll
font size
0
reset
transpose
0
reset
- display chords -
guitar tuner
Tab Pro tools
  • play this tab
  • loop segment
  • change instrument
  • show fretboard
  • metronome
Autoscroll
slow
fast
+/-
esc
set tempo
stop
Difficulty
intermediate
Bonnie and Clyde
Big Japan

If there's a problem with this tab you're probably right. Hopefully not.

E-------------------------------------1---|
B--------1----------3---------1-1h3-3-----|
G----0h2--------0h2-------0h2-------------|
D--3----------3---------3-----------------|
A-----------------------------------------|
E-----------------------------------------|

E-----------------------------------------|
B--------1----------3---------1-----------|
G----0h2--------0h2-------0h2-----2p0-0---|
D--3----------3---------3---------------3-|
A-----------------------------------------|
E-----------------------------------------|


F       C    B           B                F
    you say, "what would i do without you?"
   C  B B          F
i say, "i don't know."
          C                B            B            F
you say, "if you left, you know i'd be right behind you."
   C B B         F
i say, "ditto."

      C                 B          B          F
ever since i've known, i wanted to tell you.
        C             B          B        F
i've decided what the next best thing is.
            C             B     B
bonnie and clyde, whatever we want.
      F C       B   B             Gm
we'll do everything, everything.

Gm            C     C        F          C                  B        B     Gm
what am i to do? i go on, pretend to be friends just to be close to you.
Gm          C             C    F    C                B  B
what do you mean when you say "that way, you get me that way."
E-------------|               E-------------|
B-------------|               B-------------|
G-------0-----| you get me    G-------0-----| that way, too..
D---3-0---3-0-|               D---3-0---3-0-|
A-1-----------|               A-3-----------|
E-------------|               E-------------|

E------8----|        E------|
B----6------|        B----6-|
G--5--------|  x10   G--5---|
D-----------|        D------|
A-----------|        A------|
E-----------|        E------|

F                        C             B           B              F
  spending hours on the telephone like partners in crime, you and i
          C                 B                  B            F
both know what the other's thinking so we don't have to lie.
           C              B                B              F
both been broken-hearted, both been by each other's side.
            C                   B            B       F
i held your head and wiped your tears away as you cried.
     C                B                   B       F
and when you say that we should stay this way forever,
     C                    B             B       F
and just when i think you finally understand,
             C                 B            B        F
you start to talking about how perfect we are together.
         C               B                 B       Gm
i wanna hear you say is "boy" when you say "best friend."

Gm            C     C        F          C                  B        B     Gm
what am i to do? i go on, pretend to be friends just to be close to you.
Gm          C             C    F    C                B  B
what do you mean when you say "that way, you get me that way."
E-------------|               E-------------|
B-------------|               B-------------|
G-------0-----| you get me    G-------0-----| that way, too..
D---3-0---3-0-|               D---3-0---3-0-|
A-1-----------|               A-3-----------|
E-------------|               E-------------|

E------8----|
B----6------|
G--5--------|  x11 Fade
D-----------|
A-----------|
E-----------|
comments
We did not receive enough feedback on this tab! Please rate:
print report bad tab
1 2 3 4 5
I want to post or [tab]
guest
You may want to rate the tab now too:
select rating
Please do not post tabs as comments. Select "correction" instead!