Oops, an error
Loading. Please wait.

Jalapeno intro tab

1,604 views 3 this week
2 commentsread comments
1 2 3 4 5
x 3
add to favorites
×
Save as Personal and add changes to this tab that will be seen only by you. Learn more ›
×
You can save this tab as Personal to edit and correct it or add notes. All changes will be seen only by you. Learn more »
launch autoscroll
font size
0
reset
how to read this tab
guitar tuner
edit
Autoscroll
slow
fast
+/-
esc
set tempo
stop
Author
Difficulty
INTRO

e--------------------3------|
B--------------------4------|
G-----0-3--0-3-5-----3------|
D---3----------------5------|
A-3--------------(3)-3------|
E---------------------------|
                    Cm7
In between verses play this

e--3-3-3--4-3---------------|
B--4-4-4--5-4---------------|
G--3-3-3--4-3---------------|
D--5-5-5--6-5---------------|
A--3-3-3--4-3---------------|
E---------------------------|

            
            
Suggest correction
Creating personal tab
Creating personal tab
You can edit any tab online and save it as your Personal.

You can edit, replace or remove any tab part or add personal notes – all changes will be seen only by you.

Personal tabs can be accessed anytime from any device, even offline.
Learn more »
Give kudos to tab author, rate the tab!
1 2 3 4 5
comments
print report bad tab
2 comments total.
0 reply
greglawrence 10 Oct 05, 2010 11:25 PM

E-----------------0-||
B-----------------8-||
G-----------------7-||
D-----------------6-||
A--------5-5-7----7-||
E---5-6-7-7---00--0-||

This is the correct guitar part riff with "Hendrix Chord" on the end. (tab by-Greg Lawrence)

0 reply
greglawrence 10 Oct 05, 2010 11:34 PM

Jalapeno 2nd Guitar Part on Chorus Bends a C# note up to D while holding a high G note. This gives the impression of the whole movement going to "Key of A" while the bass and guitar play the riff in "E7-9"

"..Jalapeno!...Whooo!"
E--3------||
B--2^(3)--||
G---------||
D---------||
A---------||
E---------||

During the verses of Jalapeno, the "E7 Hendrix Chord" is moved up and down one fret E-E-E-F-E or - - - ^ -

guest
You may want to rate the tab now too:
select rating
Wanna post a correction for this tab? Suggest correction