Oops, an error
Loading. Please wait.

Save A Horse Ride A Cowboy tab

version 1
version 1

Whole song

Interactive

56,735 views 42 this week
5 commentsread comments
1 2 3 4 5
x 11
add to favorites
×
Save as Personal and add changes to this tab that will be seen only by you. Learn more ›
×
You can save this tab as Personal to edit and correct it or add notes. All changes will be seen only by you. Learn more »
launch autoscroll
font size
0
reset
how to read this tab
guitar tuner
edit
Autoscroll
slow
fast
+/-
esc
set tempo
stop
Author
[Intro]                            (x5)
E|--------------------------------|
B|--------------------------------|
G|--------------------------------|
D|-0-2--0-2-0-2-0--3-5--3-5-3-5-3-|
A|-0-2--0-2-0-2-0--3-5--3-5-3-5-3-|
D|-0-2--0-2-0-2-0--3-5--3-5-3-5-3-| 

[Verse]                         (x4)
E|----------------------------|
B|----------------------------|
G|----------------------------|
D|----------------------------|
A|-0-2--4--5--4--3-5--7--8--7-|
D|-0-2--2--2--2--3-5--5--5--5-| 

[Chorus]                            (x3)
E|--------------------------------|----------------------------------|
B|--------------------------------|----------------------------------|
G|--------------------------------|----------------------------------|
D|-0-2--0-2-0-2-0--3-5--3-5-3-5-3-|-0-2---------------3-5--3-5-3-5-3-|
A|-0-2--0-2-0-2-0--3-5--3-5-3-5-3-|-0-2---------------3-5--3-5-3-5-3-|
D|-0-2--0-2-0-2-0--3-5--3-5-3-5-3-|-0-2---------------3-5--3-5-3-5-3-|

[Verse]                         (x4)
E|----------------------------|
B|----------------------------|
G|----------------------------|
D|----------------------------|
A|-0-2--4--5--4--3-5--7--8--7-|
D|-0-2--2--2--2--3-5--5--5--5-| 

[Chorus]                            (x3)
E|--------------------------------|----------------------------------|
B|--------------------------------|----------------------------------|
G|--------------------------------|----------------------------------|
D|-0-2--0-2-0-2-0--3-5--3-5-3-5-3-|-0-2---------------3-5--3-5-3-5-3-|
A|-0-2--0-2-0-2-0--3-5--3-5-3-5-3-|-0-2---------------3-5--3-5-3-5-3-|
D|-0-2--0-2-0-2-0--3-5--3-5-3-5-3-|-0-2---------------3-5--3-5-3-5-3-|

[Verse]                         (x4)
E|----------------------------|
B|----------------------------|
G|----------------------------|
D|----------------------------|
A|-0-2--4--5--4--3-5--7--8--7-|
D|-0-2--2--2--2--3-5--5--5--5-| 

[Chorus]                            (x3)
E|--------------------------------|----------------------------------|
B|--------------------------------|----------------------------------|
G|--------------------------------|----------------------------------|
D|-0-2--0-2-0-2-0--3-5--3-5-3-5-3-|-0-2---------------3-5--3-5-3-5-3-|
A|-0-2--0-2-0-2-0--3-5--3-5-3-5-3-|-0-2---------------3-5--3-5-3-5-3-|
D|-0-2--0-2-0-2-0--3-5--3-5-3-5-3-|-0-2---------------3-5--3-5-3-5-3-|

            
            
Suggest correction
Creating personal tab
Creating personal tab
You can edit any tab online and save it as your Personal.

You can edit, replace or remove any tab part or add personal notes – all changes will be seen only by you.

Personal tabs can be accessed anytime from any device, even offline.
Learn more »
comments
print report bad tab
5 comments total. Showing first comments.
+3 reply
iAGREEtoROCK 48 Aug 22, 2007 02:10 PM

dude your a ****in retard....this is in a completely different key than the actual song. great though other than that. idiot

+2 reply
LayneCobain 10 May 29, 2008 11:08 AM

....are you high? 0-2 ok.. then 3-5? are you ****ed?

-1 reply
IAmTheWalrus894 10 Jul 02, 2012 11:28 AM

just play E and A through the song.
Don’t know what this retard was thinkin.

guest
You may want to rate the tab now too:
select rating
Wanna post a correction for this tab? Suggest correction