Oops, an error
Loading. Please wait.

Lone Bird Bass Tab

22 views 3 this week
no commentswrite comment
1 2 3 4 5
3 more votes to show rating
add to favorites
launch autoscroll
font size
0
reset
guitar tuner
Autoscroll
slow
fast
+/-
esc
set tempo
stop
Help us to improve Ultimate-Guitar.com Take our survey!
×
Author
Difficulty
novice
Intro 

  0:10                                       0:20
G|------------------------------------------|----------------------------------------|
D|------------------------------------------|----------------------------------------|
A|--4-6--------6--4-1-----------------------|-4-6------6--8-4------------------------|  
E|-----------------------2-4------2-4--6-2--|-----------------4-2-4------2-4--6-2--2-|

  0:32                                            0:42
G|------------------------------------------------|--------------------------------------|
D|------------------------------------------------|--------------------------------------|
A|--4-6------4-6--4-1-----------------------------|-4-6------4-6--4-1--------------------|
E|-----------------------2-4-6----2-4-4--6-2—2--4-|--------------------2-4----2-4-4--6-2-|

  0:52
G|-----|
D|-----|
A|-4-6-|
E|-----|

  1:13 (Chorus)
G|-----------------------------------------|-----------------------------------------|
D|-----------------------------------------|-----------------------------------------|
A|-6-------4-6-6------2-4-4------0-4-0-----|-6-------4-6-6------2-4-4------0-4-0-----| X2
E|-----4-6--------3-5--------2-4-------4-0-|-----4-6--------3-5--------2-4-------4-0-|

  1:44                                     1:55
G|----------------------------------------|----------------------------------------------|
D|----------------------------------------|----------------------------------------------|
A|-4-6------6--8-4------------------------|--4-6------4-6--4-1---------------------------|
E|-----------------4-2-4------2-4--6-2--4-|-----------------------2-4-6----2-4-4-6-2—2-4-|


  2:05                                         2:16  | 2:27 (Breakdown)

G|-----------------------------------------------|------|--------------------------------|
D|-----------------------------------------------|-4-6--|--------------------------------|
A|-4-6------4-6--4-1-----------------------------|------|-6------4------2----------------|
E|--------------------4-2-4------2-2-4-4--6-2--4-|------|----------------------4----2-1--|

  2:37 (Chorus)
G|-----------------------------------------|-----------------------------------------|
D|-----------------------------------------|-----------------------------------------|
A|-6-------4-6-6------2-4-4------0-4-0-----|-6-------4-6-6------2-4-4------0-4-0-----| X2
E|-----4-6--------3-5--------2-4-------4-0-|-----4-6--------3-5--------2-4-------4-0-|

  2:58 
G|-------------------------------|
D|-------------------------------|
A|-6------4------2---------------| X4
E|----------------------4----2-1-|

  3:42
G|-----------------------------------------|-----------------------------------------|
D|-----------------------------------------|-----------------------------------------|
A|-6-------4-6-6------2-4-4------0-4-0-----|-6-------4-6-6------2-4-4------0-4-0-----| X2
E|-----4-6--------3-5--------2-4-------4-0-|-----4-6--------3-5--------2-4-------4-0-|

  4:03 Outro
G|-----------------------------------|
D|-----------------------------------|
A|---6------------------------6------|
E|-----------------------------------|



Hey guys :) This is my first tab, so there might be some issues (possibly within the chorus, couldn't
quite work out if it was A| 1-4-1, or maybe A|0-4-0. Possibly neither haha

Please comment suggestions or corrections, and I'll definitely investigate each one! :)

-Orlando


Suggest correction
Give kudos to tab author, rate the tab!
1 2 3 4 5
comments
print report bad tab
guest
You may want to rate the tab now too:
select rating
Wanna post a correction for this tab? Suggest correction