Oops, an error
Loading. Please wait.

All Hell For A Basement chords

version 2
version 2

Whole song

1,012 views 33 this week
2 commentsread comments
1 2 3 4 5
x 11
add to favorites
×
Save as Personal and add changes to this tab that will be seen only by you. Learn more ›
×
You can save this tab as Personal to edit and correct it or add notes. All changes will be seen only by you. Learn more »
launch autoscroll
font size
0
reset
transpose
0
reset
simplify chords
display chords
guitar tuner
edit
Autoscroll
slow
fast
+/-
esc
set tempo
stop
Strumming
There is no strumming pattern for this song yet. and get +5 IQ
Big Sugar - All Hell For A Basement
Guitar I Capo 3rd 

Intro
  Em              |G               |C       G       |C       G       |
e|----------------|----------------|----------------|----------------|
B|GtrII-----------|----------------|----------------|----------------|
G|----------------|----------------|----------------|----------------|
D|----------------|--------------3-|5--3----------3-|5--3------------|
A|------0-1---3--/|5---------------|----5-3-5-------|----5-3-5-------|
E|3---------------|----------------|----------------|----------------|

  Em              |G               |C       G       |C      G        ||
  ----------------|----------------|----------------|----------------|
  ----------------|----------------|----------------|----------------|
  ----------------|----------------|----------------|----------------|
  0---------------|--------------3-|5--3----------3-|5--3------------|
  ------0-1---3--/|5---------------|----5-3-5-------|----5-3\1-------|
  3---------------|----------------|----------------|----------------|


Verse 1 
   Em            G        C                    G      C     G
 I am a working man but I ain't worked for a while
Em                  G            C             G
 Like some old tin can from the bottom of the pile
           C             G
 From the bottom of the pile


Chorus
         C   G   D      G  G/B  C
 I have lost my way but I hear tell
          C     G     D                   G  G/B  C          G
 About a heaven in Alberta where they've got all hell for a basement

   
Interlude   Em      |G       |C   G   |C   G   ||


Verse 

    Em                G            C                  G      C     G
 My words are like a rope that's wrapped around my throat
Em                   G        C              G   N.C.
 Wash my mouth with soap for words unfit to quote


Chorus
         C   G   D      G  G/B  C
 I have lost my way but I hear tell
          C     G     D                   G  G/B  C          G
 About a heaven in Alberta where they've got all hell for a basement
         C   G   D      G  G/B  C
 I have lost my way but I hear tell
          C     G     D                   G  G/B  C          G
 About a heaven in Alberta where they've got all hell for a basement


Solo
     Em              |G               |C       G       |C      G        |
----|----------------|----------------|----------------|----------------|
----|----------------|--------------6-|8--6----------6-|8--6------------|
----|------------5---|7~--------------|----7-5-7~------|----7-5-7----\3-|
-7br|5-----7-8-------|----------------|----------------|----------------|
----|----------------|----------------|----------------|----------------|
----|----------------|----------------|----------------|----------------|

     Em              |G               |C       G       |C       G       ||
     ----------------|-------------6-6|-------------6-6|----------------|
     ----------------|----------------|8--6------------|8--6------------|
     -----2-3--5brp3/|7---------------|----7-5-7-------|-----5br-3~-----|
     5---------------|----------------|----------------|----------------|
     ----------------|----------------|----------------|----------------|
     ----------------|----------------|----------------|----------------|


Verse 3
 Em               G      C             G      C      G    
 Now I'm free to go but time cannot remove
     Em            G      C                G         C                G
 The only life I know now only time will prove, yes, only time will prove


Chorus
            C   G   D      G  G/B  C
 If I have lost my way but I hear tell
          C     G     D                   G  G/B  C          G
 About a heaven in Alberta where they've got all hell for a basement
               C   G   D      G  G/B  C
 Yeah, I have lost my way but I hear tell
          C     G     D                   G  G/B  C          G       
 About a heaven in Alberta where they've got all hell for a basement


Outro Solo
 C   G  |D               |D        G  G/B |C               |C         C  G  |     
--------|----------------|----------------|----------------|----------------|
-15b-15-|13~-------------|---------13b-13-|11--------------|---------11b-11-|
--------|----------------|----------------|--12~-----------|----------------|
--------|----------------|----------------|----------------|----------------|
--------|----------------|----------------|----------------|----------------|
--------|----------------|----------------|----------------|----------------|

 D               |D    G  G/B |2C       |4G            |Em            |G
---------------|-----------tr-|---------|--------------|--------------|----
-10------------|-------10b-10-|---------|--------------|--------------|----
--------10-----|--------------|12--10-12|10------------|------2-3--5--|/7~-
---------------|--------------|---------|--12--------x\|5-------------|----
---------------|--------------|---------|--------------|--------------|----
---------------|--------------|---------|--------------|--------------|----

            
            
Suggest correction
Creating personal tab
Creating personal tab
You can edit any tab online and save it as your Personal.

You can edit, replace or remove any tab part or add personal notes – all changes will be seen only by you.

Personal tabs can be accessed anytime from any device, even offline.
Learn more »
comments
print report bad tab
2 comments total.
0 reply
rjyou 10 May 04, 2017 08:36 PM

Good one, took me a while but once I figured out the tab frets weren't relative to the capo I was away! Thanks

0 reply
P_Trik 5,929 May 05, 2017 08:45 PM

Yeah, I put guitar 2 (GtrII) in the intro tab indicating the tabs are for a separate guitar. Not a perfect solution for labelling. Glad you found it useful. Cheers

guest
You may want to rate the tab now too:
select rating
Wanna post a correction for this tab? Suggest correction