Oops, an error
Loading. Please wait.

Diggin A Hole bass

version 2
version 2

Whole song

607 views 1 this week
no commentswrite comment
1 2 3 4 5
2 more votes to show rating
add to favorites
×
Save as Personal and add changes to this tab that will be seen only by you. Learn more ›
×
You can save this tab as Personal to edit and correct it or add notes. All changes will be seen only by you. Learn more »
launch autoscroll
font size
0
reset
guitar tuner
edit
Autoscroll
slow
fast
+/-
esc
set tempo
stop
Difficulty
Artist:  Big Sugar
Song:  Diggin' a Hole
Album: Heated

Tabbed by:  Cavan Papp (cavanpapp@hotmail.com)


Simple tune to play, but lots of fun.  It's one of those just nod your head and get lost 
in the groove.  Enjoy! :)


Intro:

G|------------------------------------------------------------------|
D|------------------------------------------------------------------|  (X2)
A|------------------------------------------------------------------|
E|--5-5-5----5--5------5-5-5----5--5----5-5-5--5-5-5--5-5-5----5--5-|

Verse:
                                             Throw in the occasional to mix it up.
G|--------------------------------------|  G|--------------------------------|
D|--------------------------------------|  D|--------------------------------|
A|--------------------------------------|  A|--------------------------------|
E|--5-5-5----5--5------5-5-5----5--5----|  E|---5-5-5--5-5-5--5-5-5-----5--5-|

Pre-Chorus:  (and after 4 bar rest before 3rd chorus)
"I've been crying for days and I'm falling apart..."
"diggin' a hole in my heart..."

G|-----------------------------------------------|
D|-----------------------------------------------|    (X2)
A|--/7-7---5---3--3---5--3-----------------------|
E|------------------------------5-5-5-----5---5--|

Fills going into Chorus:

1st verse                 2nd verse                        3rd verse

G|--------------------|  G|--------------------------|  G|-------------------------------|
D|--------------------|  D|--------------------------|  D|-------------------------------|
A|--------------------|  A|--1/12 12 12 12 12 12 12--|  A|-1/12--12-12--10-10--9-9--7-7--|
E|--5-5--7-7--8-8--9--|  E|--------------------------|  E|-------------------------------|


Chorus:

G|------------------------------|
D|------------------------------|
A|--5-5-5-5-5-5-5-4-5-5-5-5-5---|
E|------------------------------|


Post Chorus, then back to verse:  (after 3rd chorus is it played 4 times, then back to 
verse riff)

G|---------------------------------|
D|----------------5----------------|
A|-------3--5--7-----7--5--3-------|
E|----5-----------------------5--5-|
Suggest correction
Creating personal tab
Creating personal tab
You can edit any tab online and save it as your Personal.

You can edit, replace or remove any tab part or add personal notes – all changes will be seen only by you.

Personal tabs can be accessed anytime from any device, even offline.
Learn more »
Give kudos to tab author, rate the tab!
1 2 3 4 5
comments
print report bad tab
guest
Wanna post a correction for this tab? Suggest correction