Oops, an error
Loading. Please wait.

Get Up tab

2,492 views 1 this week
1 commentread comment
1 2 3 4 5
1 last vote to show rating
add to favorites
×
Save as Personal and add changes to this tab that will be seen only by you. Learn more ›
×
You can save this tab as Personal to edit and correct it or add notes. All changes will be seen only by you. Learn more »
launch autoscroll
font size
0
reset
how to read this tab
guitar tuner
edit
Autoscroll
slow
fast
+/-
esc
set tempo
stop
Author
Hey guys,
Chord shapes are G, D, Am7, Cadd9.

[intro, chorus, bridge:] G, D, Am7, Cadd9

Verse, pre-chorus:]
e|-------3-----------2-----------0----3-------------------------------------|
B|-----3-----------3-----------1------3-------------------------------------|
G|---0-----------2-----------0--------0-------------------------------------|
D|-------------0----------------------2-------------------------------------|
A|-------------------------0----------3-------------------------------------|
E|-3----------------------------------x-------------------------------------|


That's pretty much the whole song.  If you want you can finger pick the entire song but 
it doesn't sound as good as if you only finger pick the verses and pre-chorus. ENJOY!!!

If you want you can leave your pinky finger on the high e string 3rd fret for the Am7 chord, but it does make it
harder.

e|-------3-----2-----------3----3-------------------------------------|
B|-----3-----3-----------1------3-------------------------------------|
G|---0-----2-----------0--------0-------------------------------------|
D|-------0----------------------2-------------------------------------|
A|-------------------0----------3-------------------------------------|
E|-3----------------------------x-------------------------------------|

            
            
Suggest correction
Creating personal tab
Creating personal tab
You can edit any tab online and save it as your Personal.

You can edit, replace or remove any tab part or add personal notes – all changes will be seen only by you.

Personal tabs can be accessed anytime from any device, even offline.
Learn more »
Give kudos to tab author, rate the tab!
1 2 3 4 5
comments
print report bad tab
1 comment total.
0 reply
ynnodnortep 110 Aug 03, 2013 09:53 AM

If you want you can leave your pinky finger on the high e string 3rd fret for the Am7 chord, but it does make it harder.

e|-------3-----2-----------3----3-------------------------------------|
B|-----3-----3-----------1------3-------------------------------------|
G|---0-----2-----------0--------0-------------------------------------|
D|-------0----------------------2-------------------------------------|
A|-------------------0----------3-------------------------------------|
E|-3----------------------------x-------------------------------------|

guest
You may want to rate the tab now too:
select rating
Wanna post a correction for this tab? Suggest correction