Oops, an error
Loading. Please wait.

Windows Down Bass Tab

3,272 views 12 this week
1 commentread comment
1 2 3 4 5
excellent!
x 3
add to favorites
launch autoscroll
font size
0
reset
guitar tuner
Tab Pro tools
  • play this tab
  • loop segment
  • change instrument
  • show fretboard
  • metronome
×
Best way to learn
"Windows Down"
Autoscroll
slow
fast
+/-
esc
set tempo
stop
Contributor
Difficulty
 Intro/Chorus 0:02
G |------------------------------|
D |------------------------------|
A |---------555-999--------------|
E |--77-555----------------------| X5

Verse: 0:23
G |------------------------------|
D |------------------------------|
A |---------555-999--------------|
E |--77-555----------------------| X8

  Bridge
G |------------------------------|
D |------------------------------|
A |------------------------------|
E |---7--5--3--------------------| X2

  Chorus
G |------------------------------|
D |------------------------------|
A |---------555-999--------------|
E |--77-555----------------------| X3

  Verse 2
G |------------------------------|
D |------------------------------|
A |---------555-999--------------|
E |--77-555----------------------| X7

  Bridge
G |------------------------------|
D |------------------------------|
A |------------------------------|
E |---7--5--3--------------------| X2

  Chorus
G |------------------------------|
D |------------------------------|
A |---------555-999--------------|
E |--77-555----------------------| X4

  2:25
G |------------------------------|
D |------------------------------|
A |------------------------------|
E |---7/-------------------------| X7

 Chorus
G |------------------------------|
D |------------------------------|
A |---------555-999--------------|
E |--77-555----------------------| X7

This is a really easy song to play, and it is very similar to Blur's "Song 2" if you 
didn't realize. I apologize if I messed up the number of times to play anything, it's 
pretty repetitive and I think you can figure it out.
comments
We did not receive enough feedback on this tab! Please rate:
print report bad tab
1 2 3 4 5
1 comment total.
0 reply
frufru4life wrote on July 29 2013, 11:46 am

Perfect tab.

I want to post or [tab]
guest
You may want to rate the tab now too:
select rating
Please do not post tabs as comments. Select "correction" instead!