Oops, an error
Loading. Please wait.

A Place To Call Home Tab

version 2
version 2

Whole song

79 views 3 this week
no commentswrite comment
1 2 3 4 5
3 more votes to show rating
add to favorites
launch autoscroll
font size
0
reset
how to read this tab
guitar tuner
Autoscroll
slow
fast
+/-
esc
set tempo
stop
Help us to improve Ultimate-Guitar.com Take our survey!
×
Author
Difficulty
intermediate
-------------------------------------------------------------------------------
                      A Place to Call Home - Big Wreck
-------------------------------------------------------------------------------
Tab done by: pauly_k63

Hey everyone, this is the first time I've ever tried this so i'm sure there will be some mistakes. 
Apparently this is the tuning that Ian uses for the song. From watching videos and listening to the song this 
is what I've come up with! If you notice anything wrong please feel free to correct it. Thanks!

*Note* With it being tuned this low and with so much fuzz, it's important to make sure the guitar is tuned 
properly and to play softly as it will cause it sound off by playing too hard.
 


Tuning: Bb,F,C,F,A,C

Intro

C |-----------------------------------------------------------------------------|
A |-----------------------------------------------------------------------------|
F |-----------------------------------------------------------------------------|
C |-----------------------------------------------------------------------------|
F |-2~---2-3-2-5-3--2~------2-3-2-5-3-5-2~-----2-3-2-5-3--2~-----2-3-2-5-3-2-0~-| <- 
Bb|-2~---2-3-2-5-3--2~------2-3-2-5-3-5-2~-----2-3-2-5-3--2~-----2-3-2-5-3-2-0~-|  |
                                                                                   |
C |-----------------------------------------------------------------------------|  |
A |-----------------------------------------------------------------------------|  |
F |---------------5~------------------------------------------------------------|  | 
C |-2h3p2p0-------5~----2h3p2p0-------------------------------------------------|  |
F |---------3~-0~-0~------------3~-0-----0~-------------------------------------|  |
Bb|---------------0~-----------------3b--0~-------------------------------------|  |
                                                                                   |
                                                                                   |
C |-----------------------------------------------------------------------------|  |
A |-----------------------------------------------------------------------------|  |
F |---------------5~------------------------------------------------------------|  |
C |-2h3p2p0-------5~----2h3p2p0-------------------------------------------------|  | 
F |---------3~-0~-0~------------3~-0-----------------------------------------------|
Bb|---------------0~------------------------------------------------------------|
                                    

Chorus 

C |----------------------------------------------------|         ----------------
A |----------------------------------------------------|         ----------------
F |--3333----0000----7777----10-10---55----------------|         ----3333-------0~
C |--3333----0000----7777----10-10---55----------------| X4 then ----3333-------0~
F |--3333----0000----7777----10-10---55----------------|         ----3333-------0~
Bb|----------------------------------------------------|         ----------------

Verse 1

C |------------------------------------------------------|         ----
A |------------------------------------------------------|         ----
F |------------------------------------------------------|         ----
C |--0-2x-0-2x--5-7h8p7s5--0-2x-0-2-5-232----------------| X6 then --0~
F |--0-2x-0-2x--5-7h8p7s5--0-2x-0-2-5-------------~------|         --0~
Bb|------------------------------------------------------|         --0~


Play As follows:

-Intro
   
-Chorus

-Verse 1      

-Chorus

-Verse 1 again (theres some back round stuff I haven't figured out)

So on so forth..

Repeat Intro till the end of the song

Ends with 

C |---------|
A |---------|
F |----3~---|
C |----3~---|
F |----3~---|
Bb|---------|

-----------------------------
| ~    Let Ring
| x    Mute
| h    Hammer on
| p    Pull Off
| s    Slide
-----------------------------
Suggest correction
Give kudos to tab author, rate the tab!
1 2 3 4 5
comments
print report bad tab
guest
You may want to rate the tab now too:
select rating
Wanna post a correction for this tab? Suggest correction