Oops, an error
Loading. Please wait.

All By Design Tab

version 2
version 2

Whole song

717 views 1 this week
no commentswrite comment
1 2 3 4 5
please rate
add to favorites
launch autoscroll
font size
0
reset
how to read this tab
guitar tuner
Autoscroll
slow
fast
+/-
esc
set tempo
stop
Help us to improve Ultimate-Guitar.com Take our survey!
×
Tuning
D G D G B D
Big Wreck - All By Design
Tabbed by Dan Gebert
dgebertAThotmail.com
Tuning: Open Gb (Db,Gb,Db,Gb,Bb,Db)

The intro and 1st verse is the tough part. I had a hard time getting it
to sound like the album.

(0:00) Intro / Verse 1:
|----11-11-9------9---------11-14-9------9--------|
|----0--0--0--------0-------0--0--0--------0------|
|----9--9--7----6-----6-----9--12-7----6-----6----|
|-------------7---------7------------7---------7--|
|-------------------------------------------------|
|--0----------------------0-----------------------|

|----11-11-9----9--11-14--9--|
|----0--0--0----0--0--0---0--|
|----9--9--7----7--9--12--7--|
|----------------------------|
|--0-------------------------|
|----------------------------|

(0:43) Chorus 1:
|------------------|
|--5--7--10-14/15--|
|--2--4--7--12-----|
|--2--4--7--12-----|
|--2--4--7--12-----|
|------------------|

(0:49) Verse 2:
|------------0---0---0-------------0---0---0----|
|----7-7-5-----------------7-8-5----------------|
|----7-7-6-6---6---6---6---7-7-6-6---6---6---6--|
|-----------------------------------------------|
|-----------------------------------------------|
|--0---------------------0----------------------|

|------------0---0---0-------7-----0---0---0----|
|----7-7-5-----------------7-7-5----------------|
|----7-7-6-6---6---6---6---7-7-6-6---6---6---6--|
|-----------------------------------------------|
|-----------------------------------------------|
|--0---------------------0----------------------|

(1:10) Chorus 2:
|-------------------------------------------------------|----------|
|--x-x-x-x--0-----0-------------------------------------|----------|
|--x-x-x-x--0-----0--------11-11-11--6-------11-11-11-6-|-4-6-4-2--|
|--x-x-x-x--0-----0-----0--12-12-12--7----0--12-12-12-7-|-x-x-x-x--|
|--x-x-x-x--0-----0--7--2--11-11-11--6--7-2--11-11-11-6-|-4-6-4-2--|
|--------------4-----4--0---------------4-0-------------|----------|

(1:36)
|--------------|
|--5--7--10-3--|
|--2--4--7--0--|
|--2--4--7--0--|
|--2--4--7--0--|
|--------------|

(2:04) Solo:
|-----------------------------------------------------------|
|--------------------------------10-8p7h8p7\5---10/12\------|
|--11-12p11p9-11h12p11p9-----7h9-----------------------\7---|
|------------------------9----------------------------------|
|-----------------------------------------------------------|
|-----------------------------------------------------------|

|-----------------12h14------14h16------16-17-16h17h16------|
|------10-12-12---------\10--------\10-----------------17---|
|--/11------------------------------------------------------|
|-----------------------------------------------------------|
|-----------------------------------------------------------|
|-----------------------------------------------------------|

|-----------------------------------------------------------|
|--15-------------------------------------------------------|
|-----16-14-16\11-9-11/12--11p9p7h9-------9-----------------|
|-----------------------------------11/12-------------------|
|-----------------------------------------------------------|
|-----------------------------------------------------------|

|--------------------14-16-14-16-17-17b19-------------------|
|-----------------15----------------------------------------|
|--12h14h16-14h16-------------------------------------------|
|-----------------------------------------------------------|
|-----------------------------------------------------------|
|-----------------------------------------------------------|
Suggest correction new What's this?
You can suggest a correction to this tab. Community and Mods will review your correction and vote to approve or reject it.
comments
We did not receive enough feedback on this tab! Please rate:
print report bad tab
1 2 3 4 5
guest
You may want to rate the tab now too:
select rating
Please do not post tabs as comments. Select "correction" instead!