Oops, an error
Loading. Please wait.

Fall Through The Cracks Tab

1,085 views 1 this week
no commentswrite comment
1 2 3 4 5
x 3
add to favorites
launch autoscroll
font size
0
reset
how to read this tab
guitar tuner
Autoscroll
slow
fast
+/-
esc
set tempo
stop
Help us to improve Ultimate-Guitar.com Take our survey!
×
Author
Tuning
D A D G B E
Fall through the Cracks
Big Wreck


Drop-D tuning tuned down 1/2 step

                 *guitar 1 enters

                 |---------------------------------|
                 |---------------------------------|
*MIDI DRUM INTRO |---------------------------------|
                 |-------------------------------4-|
                 |-----5-------5-------5---^---^---|
                 |-0-0---0-0-0---0-0-0---0-6-0-6---|

*Guitar 1, 2 & bass
|-------------------------------------------|
|-------------------------------------------|
|-------------------------------^-----------|
|-------------------------------4--0h2h4p0--|
|-----5-------5-------5---^---^-------------|
|-0-0---0-0-0---0-0-0---0-6-0-6-------------|


Quiet w. slight P.M.

|-----------------------------------|
|-----------------------------------|
|-----------------------------------|
|---------------------------------4-|
|--------------------------^---^----|
|--0-0-X--0-0-X--0-0-X---0-6-0-6----|


|-------------------------------------|
|-------------------------------------|
|-------------------------------------|
|-------------------------------------|
|-------------------------------------|
|--0-0-X--0-0-X--0-0-2-2-X-2-2-2-6-6--|

Chorus:
                                   "Only notice now and then"
|---------------------5--5-------|--------------------------|
|----------0-------8-----8--8-8--|--10-------------------5--|
|--4---3---2-------7-----7--7-7--|--9--------------------4--|
|--4---3---2---5-----------------|--7--------------------2--|
|--2---1---0---5-----------------|--7--------------------2--|
|--------------5-----------------|--7--------------------2--|

  "Close yor door..."

|--------------------------------------------------------|
|--------------------------------------------------------|
|------0-----0-----0-------0------0-----0-----0------0---|
|--------------------------------------------------------|
|--------------------------------------------------------|
|--5-5---7-7---9-9---11-11----2-2---4-4---6-6----9-9-----|
Suggest correction
Give kudos to tab author, rate the tab!
1 2 3 4 5
comments
print report bad tab
guest
You may want to rate the tab now too:
select rating
Wanna post a correction for this tab? Suggest correction