Oops, an error
Loading. Please wait.

Ladylike chords

version 2
version 2

Whole song

82 views 3 this week
no commentswrite comment
1 2 3 4 5
x 4
add to favorites
×
Save as Personal and add changes to this tab that will be seen only by you. Learn more ›
×
You can save this tab as Personal to edit and correct it or add notes. All changes will be seen only by you. Learn more »
launch autoscroll
font size
0
reset
transpose
0
reset
simplify chords
display chords
guitar tuner
edit
Autoscroll
slow
fast
+/-
esc
set tempo
stop
Strumming
There is no strumming pattern for this song yet. and get +5 IQ
Big Wreck - Ladylike

Open Db minor tuning:  Db Ab Db Fb Ab Db (think open D minor, flat tuned)
*for ease of thinking, all chords are named for open D minor            


Intro  
             ||Dm riff                         ||x4 (banjo)
--------------|------0-------------------------|
--------------|--------3p0---------------------|
--------------|------------2p0-----------------|
--x-x---------|----------------2h3-x-x---------|
--x-x-0h3-3h5-|0-------------------x-x-0h3-3h5-|
--x-x---------|0-------------------x-x---------|


Verse 1
Dm riff x14
 So she lays down, it'll be with me, she'll lay down with me
                                                     *(guitar in)
 And she walks out, it'll be on me, she'll walk out on me
                                       
 And when she's kneeling 
       F5                         E5         |Dm riff x2
-----------3-----3--------3-----------2------|---
-----------3-----3--------3-----------2------|---
---------------------------------------------|---
---------------------------------------------|---
--------3-----3--------3-----3-----2-----2---|---
--------3-----3--------3-----3-----2-----2---|---
 It'll be         for me, she's  kneeling for me             
                                                             
            Bb       |Bdim                 |F/C        N.C.        |(nat.harm)                            |x4
          -----------|---------------------|-----------------------|--------------------------------------|--
          --1--------|-2-------------------|-3----------4b---------|<5><5>-<5>-<5>-<5>-<5>-<5><7><7><7><7>|--
          --0--------|-0-------------------|-0-------------4--2--0-|<5><5>-<5>-<5>-<5>-<5>-<5><7><7><7><7>|--
          --0--------|-0-------------------|-x---------------------|<5><5>-<5>-<5>-<5>-<5>-<5><7><7><7><7>|--
          --1--------|-2-------------------|-3---------------------|<5><5>-<5>-<5>-<5>-<5>-<5><7><7><7><7>|--
          -----------|---------------------|-----------------------|--------------------------------------|--
 “And if I need you to be secure its 'cause I'm not so lady like at all”


Interlude  Dm riff ||x2
       oh oooh

Verse 2
Dm riff x2            F5               E5        Dm riff x2
 She's focused, it'll be on me, she's focused on me
Dm riff x2                 F5                E5           Dm riff x2
 And she walks with, it'll be with me, she's walking with me

            Bb        Bdim                  F/C        N.C.             
 “And if I need you to be secure its 'cause I'm not so ladylike at all”


Solo  Dm riff|     |      |        |G5     |G5  F5 E5|        *G5 = 555xxx
      Dm riff|     |G5    |G5  F5E5|Dm riff|         |
      A5     |A5 G5 F5 E5 |Dm riff |       ||

Verse 3
       D5  N.C. E5    F5              E5         Dm riff x2
 She's wishin', it'll be on me, she's wishin' on me
Dm riff x2                 F5           E5            Dm riff x2
 And she's hopeless, it'll be, oh she's hopeless with me

            Bb        Bdim                  F/C          C#          *C# = x4x44x
 “And if I need you to be secure its 'cause I'm not your ladylike”
   Bb        Bdim          F/C          N.C.          Dm riff x3
  Need you to be secure if I'm not your ladylike and more

 N.C.                                               |D5
----------------------------------------------------|---
-5p3p0-------3p0------------------------------------|---
-------3p2p0-----2----------------------------------|---
-------------------3p2p0-5p3p2----------------------|0--
-------------------------------5p3p0-3----2----0----|0--
----------------------------------------------------|0--


            
            
Suggest correction
Creating personal tab
Creating personal tab
You can edit any tab online and save it as your Personal.

You can edit, replace or remove any tab part or add personal notes – all changes will be seen only by you.

Personal tabs can be accessed anytime from any device, even offline.
Learn more »
comments
print report bad tab
guest
You may want to rate the tab now too:
select rating
Wanna post a correction for this tab? Suggest correction