Oops, an error
Loading. Please wait.

That Song Bass Tab

version 1
version 1

Whole song

Interactive

5,533 views 3 this week
no commentswrite comment
1 2 3 4 5
please rate
add to favorites
launch autoscroll
font size
0
reset
guitar tuner
Autoscroll
slow
fast
+/-
esc
set tempo
stop
Help us to improve Ultimate-Guitar.com Take our survey!
×
Title:  That Song
Band:   Big Wreck
Album:  In Loving Memory of...


I tabbed this for standard tuning on a 6 string:
B E A D G C

I believe it's played in drop Db tuning on a 4 string:
Db Ab Db Gb


Song Layout:
Intro-     Section A x2
Verse 1-   Section A x3
Chorus 1-  Section B x1
Interlude- Section C x1
           Section D x1
Verse 2-   Section A x2
Chorus 2-  Section B x1
Interlude- Section C x3.5
rest
Interlude- Section D x2
Chorus 3-  Section E x1
Interlude- Section c x3 to outro



Intro  &  Verse   SECTION A

-|--------------------------------------|
-|--------------------------------------|
-|--15-15--15-15-15-18--18-18-17--17-17-|
-|--------------------------------------|
-|--------------------------------------|
-|--------------------------------------|


---------------------------------------|
---------------------------------------|
---15-15--15-15-15-18--18-18-17--17-17-|
---------------------------------------|
---------------------------------------|
---------------------------------------|


---------------------------------------|
---------------------------------------|
---------------------------------------|
15-15h16p15-15-18--18-18-16--16-16-----|
---------------------------------------|
---------------------------------------|


---------------------------------------|
---------------------------------------|
---------------------------------------|
15-15h16p15-15-18--18-18-16--16-16-----|
---------------------------------------|
---------------------------------------|


CHORUS  1 & 2   SECTION B

---------------------------------------------------|
---------------------------------------------------|
---------------------------------------------------|
---------------------------------------------------|
---------------------------------------------------|
---6-6-6-6---2-2/-4-4/6-9/--13---2222-2-2222-2-/13-|

(Please note:  this is not true to the song, in
the song he plays a Db here i.e. #2 fret on B string
and then the /13)


---------------------------------------------------------|
---------------------------------------------------------|
---------------------------------------------------------|
---------------------------------8-----8---------8-------|
-4-4444-4-4444-4-4444-4----9-9-11-9-8-6------9-11--9-8~~-|
-------------------------2/------------------------------|
                           (This is the walk as I hear it)

-----------------------------------------------------------|
-----------------------------------------------------------|
-----------------------------------------------------------|
-------8--------8---------8--------------------------------|
----9-9-11-9-8-6------9-11--9-8~~--4444-4-4444-4-4444-4-44-|
-----------------------------------------------------------|


Interlude    SECTION C
--------------------------------|
--------------------------------|
--------------------------------|
--------------------------------|
------------------4-------------|
--6666-4---6-2--6-----6-4--4/---|

SECTION D
---------------------------------|
---------------------------------|
---------------------------------| x4
------10P8---10-8----10p8-10-8---|
-----------9-------------9----9--|
---------------------------------|

Chorus 3   SECTION E


-------------------------------------------|
-------------------------------------------|
-------------------------------------------|
-------------------------------------------|
-------------------------------------------|
--6-6-6-6---2--2--2--/13---2-2-2-2--2--/13-|

---------------------------------------|
---------------------------------------|
---------------------------------------|  x2
---------------------------------------|
--4444-4-4444-4-4444-4-----------------|
------------------------2-2/4-4/6-9/13-|
Suggest correction
Give kudos to tab author, rate the tab!
1 2 3 4 5
comments
print report bad tab
guest
You may want to rate the tab now too:
select rating
Please do not post tabs as comments. Select "correction" instead!