Oops, an error
Loading. Please wait.

That Song Tab

version 2
version 2

Whole song

Interactive

29,416 views 54 this week
2 commentsread comments
1 2 3 4 5
excellent!
x 9
add to favorites
launch autoscroll
font size
0
reset
how to read this tab
guitar tuner
Autoscroll
slow
fast
+/-
esc
set tempo
stop
Help us to improve Ultimate-Guitar.com Take our survey!
×
Author
================================================================
                       That Song - Big Wreck
================================================================
                    As recorded by Big Wreck
             (From the 1997 In Loving Memory Of...)

Words and Music by Big Wreck


Tuning: (Db Ab Db Gb Bb eb) - "Drop D half a step down or 'Drop Db'"*

*For those who do not know how to tune to drop Db,
tune the low e down to d, then fret it and 1st fret
and tune it down until it sounds like a D, then 
for the A string also fret it at 1st fret and tune
it down until it sounds like an A, and so on until
all strings are tuned.


[Intro Part 1:]

eb---------------------------------------------------------|
Bb---------------------------------------------------------|
Gb--11----11----11--11--11--14---14--14--13----13--13--11--|
Db---0-----0-----0---0---0---0----0---0---0-----0---0---0--|
Ab---------------------------------------------------------|
Db---------------------------------------------------------|

eb---------------------------------------------------------|
Bb---------------------------------------------------------|
Gb--11----11----11--11--11/--14---14--14--13----13--13-----|
Db---0-----0-----0---0---0----0----0---0---0-----0---0--0--|
Ab---------------------------------------------------------|
Db---------------------------------------------------------|

eb---------------------------------------------------------|
Bb---------------------------------------------------------|
Gb---------------------------------------------------------|
Db--11----11----12--11--11--14---14--14--12----12--12--11--|
Ab---0-----0-----0---0---0---0----0---0---0-----0---0---0--|
Db---------------------------------------------------------|


eb---------------------------------------------------------|
Bb---------------------------------------------------------|
Gb---------------------------------------------------------|
Db--11----11----12--11--11--14---14--14--12----12--12--12--|
Ab---0-----0-----0---0---0---0----0---0---0-----0---0---0--|
Db---------------------------------------------------------|



[Intro Part 2:]

eb----------------------------------------------------------|
Bb--10----10----10--10--10/--14---14--14--12----12--12--10--|
Gb--11----11----11--11--11/--14---14--14--13----13--13--11--|
Db---0-----0-----0---0---0----0----0---0---0-----0---0---0--|
Ab----------------------------------------------------------|
Db----------------------------------------------------------|


eb----------------------------------------------------------|
Bb--10----10----10--10--10/--14--14--14--12----12--12-------|
Gb--11----11----11--11--11/--14--14--14--13----13--13-------|
Db---0-----0-----0---0---0----0---0---0---0-----0---0--0----|
Ab----------------------------------------------------------|
Db----------------------------------------------------------|


eb----------------------------------------------------------|
Bb----------------------------------------------------------|
Gb----------------------------------------------------------|
Db--11----11----12--11--11--14---14--14--12----12--12--11---|
Ab---0-----0-----0---0---0---0----0---0---0-----0---0---0---|
Db----------------------------------------------------------|

eb----------------------------------------------------------|
Bb----------------------------------------------------------|
Gb----------------------------------------------------------|
Db--11----11----12--11--11--14---14--14--12----12--12--12---|
Ab---0-----0-----0-------0---0----0---0---0-----0---0---0---|
Db----------------------------------------------------------|



[Pre-Chorus]

eb---------------------|
Bb---------------------|
Gb---------------------|
Db--7--7--7--7--7--7---|
Ab--7--7--7--7--7--7---|
Db--7--7--7--7--7--7---|
    .  .  .  .  .  .

[Chorus]

eb----------------------------------------0-----------------0---------------|
Bb----------------------------------------2-----------------2---------------|
Gb------------------------------------2---2------4br----2---2---------------|
Db--0------------------0--------------2---2-------------2---2-----7--7--7---|
Ab--0--------4b--------0-------4\-----0---0-------------0---0-----7--7--7---|
Db--0------------------0------------------------------------------7--7--7---|
                                                                  .  .  .

eb--------------------------------------------------------------------------------|
Bb--------------------------------------------------------------------------------|
Gb--------------------------------------------------------------------------------|
Db--0--4--5--0--2--4--0--0--2--0--0--0--------0--4--5--0--2--4--0--0--2--0--0--0--|
Ab--0--4--5--0--2--4--0--0--2--0--0--0--4b----0--4--5--0--2--4--0--0--2--0--0--0--|
Db--0--4--5--0--2--4--0--0--2--0--0--0--------0--4--5--0--2--4--0--0--2--0--0--0--|

                    
eb--------------0-----------------0-----|
Bb--------------2-----------------2-----|
Gb----------2---2------4br----2---2-----|
Db----------2---2-------------2---2-----|
Ab---4\-----0---0-------------0---0-----|
Db--------------------------------------|



[Post-Chorus] (Clean; let ring):

eb----------------------------------------------------------------------------|
Bb--7----5------------------7----3-----------------7---10------------7----5---|
Gb--6----4--4----------4----6----2--2---------2----6----9--9---------6----4---|
Db--4----2----2-------2-----4----0----0------------4----7------7-----4----2---|
Ab--4----2------2---2-------4----0------0---0------4----7--------7---4----2---|
Db--4----2--------2---------4----0--------0--------4----7------------4----2---|


[Bridge]

eb-----------------------------------------------------|
Bb-----------------------------------------------------|
Gb-----------------------------------------------------|
Db-----------------------------------------------------|
Ab-----11--9-----11~----9-------11--9-----11~----9-----|
Db--0---------0--------------0---------0------------0--|


eb----------------------------------------------------|
Bb----------------------------------------------------|
Gb----------------------------------------------------|
Db----------------------------------------------------|
Ab---11--9-----11~----9--------11--9-----11~----9-----|
Db----------0---------------0---------0---------------|


eb----------------------------------------------------------------------|
Bb----------------------------------------------------------------------|
Gb----------------------------------------------------------------------|
Db-----6--4-----6~----4------6--4-----6~----4-------6--4-----6~----4----|
Ab--0--------0------------0--------0-----------0----------0-------------|
Db----------------------------------------------------------------------|

eb--------------------------|
Bb--------------------------|
Gb--------------------------|
Db-----6--4-----6~----4-----|
Ab--0--------0--------------|
Db-----------------------0--|




Variations on Riffs:

[Chorus 2]

eb----------------------------------------0-----------------0---------------|
Bb----------------------------------------2-----------------2---------------|
Gb------------------------------------2---2------4br----2---2---------------|
Db--0------------------0--------------2---2-------------2---2-----7--7--7---|
Ab--0--------4b--------0-------4\-----0---0-------------0---0-----7--7--7---|
Db--0------------------0------------------------------------------7--7--7---|
                                                                  .  .  .

eb------------------------------------------------------------0---------------0---|
Bb------------------------------------------------------------2---------------2---|
Gb--------------------------------------------------------2---2----4br----2---2---|
Db--0-----2----4----6-----------0----2----4----6----------2---2-----------2---2---|
Ab--0-----2----4----6-----4b----0----2----4----6----4\----0---0-----------0---0---|
Db--0-----2----4----6-----------0----2----4----6----------------------------------|


Post-Chorus 2 (Clean):


eb---------------------------------------------------------------------------------|
Bb--7----5----7----3----7---10----7----5----7----3----7---10----7----5----7----3---|
Gb--6----4----6----2----6----9----6----4----6----2----6----9----6----4----6----2---|
Db--4----2----4----0----4----7----4----2----4----0----4----7----4----2----4----0---|
Ab--4----2----4----0----4----7----4----2----4----0----4----7----4----2----4----0---|
Db--4----2----4----0----4----7----4----2----4----0----4----7----4----2----4----0---|
                    


Order:

Intro Part 1....(1x)
Intro Part 2....(1x)
Intro Part 1....(2x)
Intro Part 2....(1x)
Pre-Chorus......(1x)
Chorus..........(1x)
Post-Chorus.....(1x)
Bridge..........(1x)
Intro Part 1....(2x)
Pre-Chorus......(1x)
Chorus..........(1x)
Post-Chorus 2...(1x)
Bridge..........(1x)
Chorus 2........(1x)
Post Chorus 2...(1x)



************************************

Legend:
/  - slide
b  - bend
br - bend-release
.  - palm mute
~ - vibrato

************************************
Suggest correction
comments
print report bad tab
2 comments total.
+1 reply
andrewjp123 563 wrote on July 2 2010, 11:34 am

sorry, i made a mistake in the order section. The second time you play the bridge, it's 2 times.

0 reply
redrave9 10 wrote on September 4 2013, 09:32 pm

I don't think you have post-chorus correct. The chords are right but you don't have the right sequence of notes between them.

guest
You may want to rate the tab now too:
select rating
Please do not post tabs as comments. Select "correction" instead!