Oops, an error
Loading. Please wait.

Ne Gledaj Me Tako I Ne Ljubi Me Vise chords

112 views 1 this week
no commentswrite comment
1 2 3 4 5
2 more votes to show rating
add to favorites
×
Save as Personal and add changes to this tab that will be seen only by you. Learn more ›
×
You can save this tab as Personal to edit and correct it or add notes. All changes will be seen only by you. Learn more »
launch autoscroll
font size
0
reset
transpose
0
reset
simplify chords
display chords
guitar tuner
edit
Autoscroll
slow
fast
+/-
esc
set tempo
stop
Author
Difficulty
intermediate
Strumming
There is no strumming pattern for this song yet. and get +5 IQ
[Intro]
     Am    Am C
e|----------------|
B|---1--X--1--1---|
G|---2--X--2--0---|
D|---2--X--2--2---|
A|---0--X--0--3---|
E|----------------|

     C  B   G      Am        
e|----------------------|
B|---1--------------1---|
G|---0--0---0-------2---|
D|---2--0---0-------2---|
A|---3--2---2-------0---|
E|----------3-----------| 
 
[Verse 1]
Am                             
Ne gledaj me tako nocas             
D          C     G       Am C  Am C Am C  C B G Am            
Jer u srcu tvoju ljubav slutim
Am               
Ne gledaj me jer muzika svira
D          C      G    Am    Am C Am C
Reci cu ti stvari koje cutim
     Dm           Em
Zato sklopi oci i idi
      F                 G
Jer i tvoje su zelene i snene
          Am        
Kao nekad njene
                                 
[Chorus] 
    Am  B  C     G
e|---------------3---|
B|---1------1----3---|
G|---2--0---0----0---|
D|---2--0---2----0---|
A|---0--2---3----2---|
E|---------------3---|

     C  B   G      Am        
e|----------3-----------|
B|---1------3-------1---|
G|---0--0---0-------2---|
D|---2--0---0-------2---|
A|---3--2---2-------0---|
E|----------3-----------|
    
Am  B  C          G
Ja sam covjek bez snage
   C   B      Am
Da krene jos jednom
Am B   C             G
Ja sam sanjar sto je sanjao
       C  B     Am
Samo s jednom zenom
Am  B  C          G
Ja sam kockar bez srece
      Am    G     F         E7
Ja se bojim ja te molim idi sad
                       C  B  G  Am
Ne gledaj me tako i ne ljubi me vise.
 
[Solo]
 
[Chorus] 
    Am  B  C     G
e|---------------3---|
B|---1------1----3---|
G|---2--0---0----0---|
D|---2--0---2----0---|
A|---0--2---3----2---|
E|---------------3---|

     C  B   G      Am        
e|----------3-----------|
B|---1------3-------1---|
G|---0--0---0-------2---|
D|---2--0---0-------2---|
A|---3--2---2-------0---|
E|----------3-----------|
    
Am  B  C          G
Ja sam covjek bez snage
   C   B      Am
Da krene jos jednom
Am B   C             G
Ja sam sanjar sto je sanjao
       C  B     Am
Samo s jednom zenom
Am  B  C          G
Ja sam kockar bez srece
      Am    G     F         E7
Ja se bojim ja te molim idi sad
                       C  B  G  Am
Ne gledaj me tako i ne ljubi me vise.
 
[Verse 2]
Am            
Ne nudi mi usne nocas
D           C    G     Am C Am C Am C C B G Am
Pozelicu da me uvijek ljube
Am
Ne govori tako lijepo
D          C       G     Am C Am C
Ne vjerujem usnama kad gube
Dm        Em
Lagale su drugog
F        G
Lagace i mene
          Am
Kao nekad njene
    Dm         Em
Jer lagale su drugog
F        G
Lagace i mene
               Am
Isto kao nekad njene

            
            
Suggest correction
Creating personal tab
Creating personal tab
You can edit any tab online and save it as your Personal.

You can edit, replace or remove any tab part or add personal notes – all changes will be seen only by you.

Personal tabs can be accessed anytime from any device, even offline.
Learn more »
Give kudos to tab author, rate the tab!
1 2 3 4 5
comments
print report bad tab
guest
You may want to rate the tab now too:
select rating
Wanna post a correction for this tab? Suggest correction