Oops, an error
Loading. Please wait.

Pozuritr Konji Moji tab

864 views 3 this week
1 commentread comment
1 2 3 4 5
2 more votes to show rating
add to favorites
×
Save as Personal and add changes to this tab that will be seen only by you. Learn more ›
×
You can save this tab as Personal to edit and correct it or add notes. All changes will be seen only by you. Learn more »
launch autoscroll
font size
0
reset
how to read this tab
guitar tuner
edit
Autoscroll
slow
fast
+/-
esc
set tempo
stop
Author
Pozurite Konji Moji - Bijelo Dugme

riff i solo sema:
   - A sema: AGACA , AAC
             ACAC  , AAAC

   - D sema: DCDFD,DDp

      A sema
Ponoc kuca nano moja, a ja nemam sna
Gdje su sada konji moji moja oka dva
     A sema
Zlatom cu ih potkovati, pozlaticu sve
Samo da me prije zore odnesu do nje

D sema             A sema
Dug je put, dug je put
Pozurite konji moji
D sema       E
Dug je put, brze jos brze
                    E7   A sema
O, brze jurite kroz noc

I ne kuni stara mati sto ja nemam sna
I ne kuni konje moje, moja oka dva
Znas kad meni na um padnu milovanja sva
Ja ne gledam je li ponoc ili sunce sja

Solo:
E------------------------------|
H------------------------------|
G------------------------------|  4x
D------------------------------|
A------------------------------|
E--55-3-55-3-5-55-3-55-3-55-3--|
                                     Bas
E--------------------------------|   ---------------------|
H--------------------3-3/5-3-----|   ---------------------|
G--------------2-5-5---------5-4-|   ---------------------|  7x
D------------5-------------------|   ---------------------|
A------3-3/5---------------------|   --------3---------3--|
E—-3-5---------------------------|   --5-3-5---5-x-5-5----|

|--11/12--------------10-------|--11/12--------------10---------|
|------------13-12-13----12-10-|------------13-12-13----12-10/5-|
|------------------------------|--------------------------------|
|------------------------------|--------------------------------|
|------------------------------|--------------------------------|
|------------------------------|--------------------------------|

E-------------------------8---------|
H--10-x-10-x-10-10--10-8----10-8-10-|
G-----------------------9-----------|
D-----------------------------------|
A-----------------------------------|
E-----------------------------------|


E--------------------------------------------------------|
H--x-10-x-10-x-10-x-10-10-10-10-8---x-10-10-10-8-10-10/3-|
G--------------------------------9x----------------------|
D--------------------------------------------------------|
A--------------------------------------------------------|
E--------------------------------------------------------|

E-----------------------------|
H-----------------------------|
G-----------------------------|
D-----------------------------|
A--035-057-057-079-5/10-12-7--|
E--------------------------5--|

E--11/12--------------10-------|--11/12--------------10---------|
H------------13-12-13----12-10-|------------13-12-13----12-10/3-|
G------------------------------|--------------------------------|
D------------------------------|--------------------------------|
A------------------------------|--------------------------------|
E------------------------------|--------------------------------|

E-----------------8----|
H--10-x-10-x-10-x---10-|
G----------------------|
D----------------------|
A----------------------|
E----------------------|

---------17------17-------|---------17------17-------|
--10-x-x----10-x----10-10-|--10-x-x----10-x----10-10-|
--------------------------|--------------------------|
--------------------------|--------------------------|
--------------------------|--------------------------|
--------------------------|--------------------------|

E---------------17--------------------|
H--13-12---------------------13-12----|
G-------14-12-14--14-14-14-12-----12--|
D-------------------------------------|
A-------------------------------------|
E-------------------------------------|

--------------17-----------------------|
-13-12------------------------13-12----|
------14-12-14--14-14-14-12-14-----12--|
---------------------------------------|
---------------------------------------|
---------------------------------------|

E---------------17-----------------------|
H--13-12------------------------13-12----|
G-------14-12-14--14-14-14-12-14-----12--|
D----------------------------------------|
A----------------------------------------|
E----------------------------------------|

--------------17-------------------|
-13-12-----------------------------|
------14-12-14--14-14-14-12-14-12--|
-----------------------------------|
-----------------------------------|
-----------------------------------|

E-----------------------------|
H-----------------------------|
G-----------------------------|
D-----------------------------|
A--035-057-057-079-5/10-12-7--|
E--------------------------5--|


E--11/12--------------10-------|--12-11h12p11-------------|
H------------13-12-13----12-10-|--------------13-11/12-10-|
G------------------------------|--------------------------|
D------------------------------|--------------------------|
A------------------------------|--------------------------|
E------------------------------|--------------------------|

E--12\10----10-10/12-10-------|--12-11h12p11-------------------|
H--------13-------------13-10-|--------------13-13-12-12/13-10-|
G-----------------------------|--------------------------------|
D-----------------------------|--------------------------------|
A-----------------------------|--------------------------------|
E-----------------------------|--------------------------------|

E--10/12-10/12-10/12-10/12-------|
H--------------------------13-10-|
G--------------------------------|
D--------------------------------|
A--------------------------------|
E--------------------------------|

--12-11-------9/10----8-10-8h10p8-7-8-7-|
-------13-12----------------------------|
----------------------------------------|
----------------------------------------|
----------------------------------------|
----------------------------------------|

E----------------------------------|
H----------------------------------|
G----------------------------------|
D----------------------------------| 4x
A----------------7--5-7-5---5------|
E--5--8--7-8-7-5----------8---8-7--|

E-----------------------------------------------------------------|
H-----------------------------------------------------------------|
G-----------------------------------------------------------------|
D--------------------5-555-555-555555--7-777-777-777777-----------|
A--7-777-777-777777--3-333-333-333333--5-555-555-555555--7-5-3-2--|
E--5-555-555-555555-----------------------------------------------|

E-------------------------------------------------------------------|
H-------------------------------------------------------------------|
G-------------------------------------------------------------------|
D--------------------5-555-555-555555--7-777-777-777777-------------|
A--7-777-777-777777--3-333-333-333333--5-555-555-555555--7-5-3-2-2--|
E--5-555-555-555555----------------------------------------------0—-|

            
            
Suggest correction
Creating personal tab
Creating personal tab
You can edit any tab online and save it as your Personal.

You can edit, replace or remove any tab part or add personal notes – all changes will be seen only by you.

Personal tabs can be accessed anytime from any device, even offline.
Learn more »
Give kudos to tab author, rate the tab!
1 2 3 4 5
comments
print report bad tab
1 comment total.
0 reply
opan 136 Oct 23, 2007 12:53 AM

5 stars for solo....

guest
You may want to rate the tab now too:
select rating
Wanna post a correction for this tab? Suggest correction