Oops, an error
Loading. Please wait.

Ruzica Si Bila Tab

version 1
version 1

Acoustic

Interactive

16 views 16 this week
no commentswrite comment
1 2 3 4 5
3 more votes to show rating
add to favorites
launch autoscroll
font size
0
reset
how to read this tab
guitar tuner
Autoscroll
slow
fast
+/-
esc
set tempo
stop
Help us to improve Ultimate-Guitar.com Take our survey!
×
Author
Difficulty
intermediate
2/4


[Intro]

e|-----------------|-----------------|-----------------|-----------------|
B|-1p0-------------|-----------------|-----------------|-----------------|
G|-----2-----------|-----------------|-----------------|-----------------|
D|--------2--2/3---|-----------------|-----------------|-----------------|
A|-0---------------|-----------------|-----------------|-----------------|
E|-----------------|-----------------|-----------------|-----------------|


[Verse]

e|-----------------|-----------------|-----------------|-----------------|
B|-----------------|-3---1-------0---|--------------0--|-1p0--------1----|
G|-2---2---1---2---|-----------------|-2---1---2-------|-----2----2------|
D|-----------------|-----------------|-----------------|--------2--------|
A|-----------------|-----------------|-----------------|-----0-----------|
E|-1---------------|-3-----------0---|-----------------|-----------------|

e|-----------------|---------1---0---|-0-------0-------|-----0---1---0---|
B|-----------------|-3---1-----------|-------------1---|-3---------------|
G|-2---2---1---2---|-----------------|-----------------|-----------------|
D|-----------------|-----------------|-----2-----------|-----------------|
A|-----------------|-----------------|-3---------------|-2---------------|
E|-1---------------|-3---------------|-----------------|-----------------|

e|-----------------|-----------------|-----------------|-0h1-0--0----0---|
B|-1-----------1---|-0---1---3---1p0-|---------------0-|-------------2---|
G|---------2-------|-----------------|-2-----------1---|-------------0---|
D|-----2-----------|-----------------|-----------2-----|-------------2---|
A|-0---------------|-----------------|-----------------|--------0----0---|
E|-----------------|-3---------------|-1------0--------|-----------------|

e|-----0---1-----1-|-0-----------0---|-----------------|---------0-----0-|
B|-3-----------3---|---------1-------|-3-----------3---|-1---3-----------|
G|-----------2-----|-----0-----------|---------0-------|--------------0--|
D|---------0-------|-----------------|-----0-----------|------------2----|
A|-----------------|-3---------------|-----------------|---------3-------|
E|-----------------|-----------------|-3---------------|-3---------------|

e|-----------------|-----------------|-----------------|-----------------|
B|-3-----------3---|-1-----------1---|-0-----------0---|-----------------|
G|---------0-------|---------2-------|---------0-------|-2---2---2---1-2-|
D|-----0-----------|-----2-----------|-----0-----------|-----------------|
A|-2---------------|-0---------------|-----------------|-----------------|
E|-----------------|-----------------|-3---------------|-1---------------|

e|-----------------|-----------------|-----------------|-0---------------|
B|-3---1---0-------|-0---1p0---------|-------------1---|-----------------|
G|-----------2-1-2-|-----------------|---------2-------|-----------------|
D|-0---------------|-----------------|-----2-----------|-----------------|
A|-----------------|-----------------|-0---------------|-----------------|
E|---------0-------|-----------------|-----------------|-----------------|


[Chorus] 

e|-0-------1-------|-1--------3------|-0-------1-------|-1-------3/5-3-0-|
B|-1-------3-------|-1--------0------|-1-------3-------|-1---------------|
G|-2-------2-------|-2--------0------|-2-------2-------|-2---------------|
D|-2-------0-------|-3--------0------|-2-------0-------|-3---------------|
A|-0---------------|-3--------2------|-0---------------|-3---------------|
E|-----------------|-1--------3------|-----------------|-1-------3-------|

e|-0-------1-------|-1--------3------|-0-------1-------|-1-------0-------|
B|-1-------3-------|-1--------0------|-1-------3-------|-1-------1-------|
G|-2-------2-------|-2--------0------|-2-------2-------|-2-------2-------|
D|-2-------0-------|-3--------0------|-2-------0-------|-3-------2-------|
A|-0---------------|-3--------2------|-0---------------|-3-------0-------|
E|-----------------|-1--------3------|-----------------|-1---------------|



[Verse]

e|-----------------|-----------------|-----------------|-----------------|
B|-----------------|-3---1-------0---|--------------0--|-1p0--------1----|
G|-2---2---1---2---|-----------------|-2---1---2-------|-----2----2------|
D|-----------------|-----------------|-----------------|--------2--------|
A|-----------------|-----------------|-----------------|-----0-----------|
E|-1---------------|-3-----------0---|-----------------|-----------------|

e|-----------------|---------1---0---|-0-------0-------|-----0---1---0---|
B|-----------------|-3---1-----------|-------------1---|-3---------------|
G|-2---2---1---2---|-----------------|-----------------|-----------------|
D|-----------------|-----------------|-----2-----------|-----------------|
A|-----------------|-----------------|-3---------------|-2---------------|
E|-1---------------|-3---------------|-----------------|-----------------|

e|-----------------|-----------------|-----------------|-0h1-0--0----0---|
B|-1-----------1---|-0---1---3---1p0-|---------------0-|-------------2---|
G|---------2-------|-----------------|-2-----------1---|-------------0---|
D|-----2-----------|-----------------|-----------2-----|-------------2---|
A|-0---------------|-----------------|-----------------|--------0----0---|
E|-----------------|-3---------------|-1------0--------|-----------------|

e|-----0---1-----1-|-0-----------0---|-----------------|---------0-----0-|
B|-3-----------3---|---------1-------|-3-----------3---|-1---3-----------|
G|-----------2-----|-----0-----------|---------0-------|--------------0--|
D|---------0-------|-----------------|-----0-----------|------------2----|
A|-----------------|-3---------------|-----------------|---------3-------|
E|-----------------|-----------------|-3---------------|-3---------------|

e|-----------------|-----------------|-----------------|-----------------|
B|-3-----------3---|-1-----------1---|-0-----------0---|-----------------|
G|---------0-------|---------2-------|---------0-------|-2---2---2---1-2-|
D|-----0-----------|-----2-----------|-----0-----------|-----------------|
A|-2---------------|-0---------------|-----------------|-----------------|
E|-----------------|-----------------|-3---------------|-1---------------|

e|-----------------|-----------------|-----------------|-0---------------|
B|-3---1---0-------|-0---1p0---------|-------------1---|-----------------|
G|-----------2-1-2-|-----------------|---------2-------|-----------------|
D|-0---------------|-----------------|-----2-----------|-----------------|
A|-----------------|-----------------|-0---------------|-----------------|
E|---------0-------|-----------------|-----------------|-----------------|


[Chorus] 

e|-0-------1-------|-1--------3------|-0-------1-------|-1-------3/5-3-0-|
B|-1-------3-------|-1--------0------|-1-------3-------|-1---------------|
G|-2-------2-------|-2--------0------|-2-------2-------|-2---------------|
D|-2-------0-------|-3--------0------|-2-------0-------|-3---------------|
A|-0---------------|-3--------2------|-0---------------|-3---------------|
E|-----------------|-1--------3------|-----------------|-1-------3-------|

e|-0-------1-------|-1--------3------|-0-------1-------|-1-------0-------|
B|-1-------3-------|-1--------0------|-1-------3-------|-1-------1-------|
G|-2-------2-------|-2--------0------|-2-------2-------|-2-------2-------|
D|-2-------0-------|-3--------0------|-2-------0-------|-3-------2-------|
A|-0---------------|-3--------2------|-0---------------|-3-------0-------|
E|-----------------|-1--------3------|-----------------|-1---------------|


************************************

| h   Hammer-on
| p   Pull-off
| /   Slide up

************************************
Suggest correction
Give kudos to tab author, rate the tab!
1 2 3 4 5
comments
print report bad tab
guest
You may want to rate the tab now too:
select rating
Wanna post a correction for this tab? Suggest correction