Oops, an error
Loading. Please wait.

Sta Bi Dao Da Si Na Mom Mjestu Tab

version 1
version 1

Whole song

Interactive

6,236 views 9 this week
2 commentsread comments
1 2 3 4 5
excellent!
x 4
add to favorites
launch autoscroll
font size
0
reset
how to read this tab
guitar tuner
Autoscroll
slow
fast
+/-
esc
set tempo
stop
Help us to improve Ultimate-Guitar.com Take our survey!
×
Contributor
-------------------------------------------------------------------------------
                 Sta Bi Dao Da Si Na Mom Mjestu - Bijelo Dugme
-------------------------------------------------------------------------------
Tabbed by:Haris Opanovic
Email:harisopanovic2000@yahoo.com

Tuning:Intro solo

|----^<12>--10-----------------------------------------------------------------^0-|
|----^<12>-----12--------12-13---12h13p12-------------10------7-8-10-7h8p7-----^0-|
|----^<12>---------12h14-------------------9h11----11-------7--------------7---^0-|
|------------------------------------------------0--------0--------------------^2-|
|------------------------------------------------------------------------------^2-|
|-<12>-------------------------------------------------------------------------^0-|

 
|------------^<12>--10------------------------------------------------------------|
|------------^<12>-----12--------12-13--12h13p12-------------10------7-8-10-7h8p7-|
|------------^<12>---------12h14------------------9h11----11-------7--------------|
|-------------------------------------------------------0--------0----------------|
|-2S7-----------------------------------------------------------------------------|
|-----0-<12>----------------------------------------------------------------------|

  
|----^0--------------------------------------------------------|
|----^0---------3-5-6----------3-5-6---------------------------|
|-7--^0-------2-------4------2--------------5------4-5-7--2----|
|----^2-----3--------------3---------6----7------5--------3----|
|----^2---2--------------2--------------0----------------------|
|----^0----------------------------------------3----------1----|

  
|----------------------5-5----8---7--------8-----8-----8--------|
|-------3-5-6S9------5-------------------5---5-----5-----5------|
|-----2------------5-------------------5-------5-----5-----5----|
|---3------------7----------7---6----7--------------------------|
|-2-------------------------------------------------------------|
|---------------------------------------------------------------|

  
|-------7-8S10---------10----------------4-----4-----4------------5-----|
|-----6--------------9-----------------3---3-----3-----3--------5---5---|
|---7-------------10-----------10----4-------4-----4-----4----5-------5-|
|-6-------------9------------9-----3------------------------7-----------|
|--------------------------8--------------------------------------------|
|-----------------------------------------------------------------------|

  
|-5-----5------------7-----7-----7------------8-----8-----8--------|
|---5-----5--------6---6-----6-----6--------5---5-----5-----5------|
|-----5-----5----7-------7-----7-----7----5-------5-----5-----5----|
|--------------6------------------------7--------------------------|
|------------------------------------------------------------------|
|------------------------------------------------------------------|

   
|----------11-------11-------11-----------------12-------10------------7--8-10S12|
|-------10----10-------10-------10-----------12----12-------10-------8-----------|
|----11----------11-------11-------11-----12----------12-------11----------------|
|-10-----------------------------------14--------------------------0-------------|
|--------------------------------------------------------------------------------|
|--------------------------------------------------------------------------------|

   
|-^4--5--^7--8--^11-------^12--10-------------------------------------------------|
|-^3-----^6-----^10-------^12-----12--------12-13--12h13p12-------------10------7-|
|-^4-----^7-----^11-------^12---------12h14------------------9-11----11-------7---|
|-^3-----^6-----^10------------------------------------------------0--------0-----|
|-----0------0-------<12>---------------------------------------------------------|
|---------------------------------------------------------------------------------|


|---------------0-----0------------------------------------|
|-8-10-7h8p7-------0-----0--1-0h1p0----0-----0-----1-------|
|------------7----------------------2-----0-----0-----2----|
|----------------------------------------------------------|
|---------------------------0----------------------0-------|
|---------------0-----0----------------0-----0-------------|


|------------0---0-----0----------------------------------|
|-------------------0-----0--1-0h1p0----0-----0-----1-----|
|-2-2p0h2----------------------------2-----0-----0-----2--|
|---------4-----------------------------------------------|
|-2--------------------------0----------------------0-----|
|------------0---0-----0----------------0-----0-----------|


                   PM-----------|    PM     PM-----------|
  
|------------------------------------------------------------|
|------------------------------------------------------------|
|-2-2p0h2----7---9----------------7----7--9------------------|
|---------4--7---9----------------7----7--9------------------|
|-2----------5---7----------------5----5--7------------------|
|------------------0--0-0--0-0--0----0------0--0-0--0-0--0---|

Prateci tekst svirajte ovo...(uz citavu pjesmu svirajte samo ovaj dio)

|----------------------------------------------------------------------------|
|----------------------------------------------------------------------------|
|----------------------------------------------------------------------------|
|--5--55--55--5--3-3--5/--------5--55-53-3---3-33--33--33--1/----------------|
|--7--77--77--7--5-5--7/--------7--77-75-5---5-55--55--55--3/----------------|
|--7--77--77--7--5-5--7/--------7--77-75-5---5-55--55--55--3/----------------|
Sra bi dao da si na mom mjestu                Da te mrze a da ti se dive

To je to...

Ako vam se svidja tablatura molim va da mi javite.

Uzivajte!
Suggest correction What's this?
You can suggest a correction to this tab. Community and Mods will review your correction and vote to approve or reject it.
comments
print report bad tab
2 comments total.
0 reply
juloski 27 wrote on November 16 2009, 02:10 pm

Супер таб, супер песма поздрав од Македонија. 5/5

0 reply
ljopi 596 wrote on June 8 2010, 07:28 am

super je tab... s' tim shto je skinut sa 2akordi, sve sem zadnje linije... ko ga ja prvi uradio, ti ili dr kac, ne ulazim u to... ali na osnovu ovoga sam napravio gp fajl...

I want to post or [tab]
guest
You may want to rate the tab now too:
select rating
Please do not post tabs as comments. Select "correction" instead!