Oops, an error
Loading. Please wait.

Kozeli Helyeken Tab

version 1
version 1

Whole song

Interactive

4,911 views 6 this week
no commentswrite comment
1 2 3 4 5
please rate
add to favorites
launch autoscroll
font size
0
reset
how to read this tab
guitar tuner
Tab Pro tools
  • play this tab
  • loop segment
  • change instrument
  • show fretboard
  • metronome
×
Best way to learn
"Kozeli Helyeken"
Autoscroll
slow
fast
+/-
esc
set tempo
stop
Contributor
Difficulty
intermediate
                  
                             BIKINI: Kozeli helyeken

                         
BIKINI: Kozeli helyeken 
              
     
Transcribed by:  Piko Sandor (piko83@freemail.hu)

Date last modified: 2004-08-15 

Notation:

~    =  vibrato                                       
h    =  hammer on                                     
p    =  pull off                                      
/    =  slide                                         
^    =  bend                                          
^r   =  bend-release                                  
X//  =  pick slide                
()   =  natural harmonic                              
*    =  palm mute                                     
                 
    
Tuning: Standard
 

INTRO (2x) 
e|---0--0-------2--2-----2h3p2-------0--0---------0--0---------------|
B|---0----0-----3----3---------3-----1----3-------0----0---3---------|
G|---0------0---2------2---------2---2------2/4---0------0---0-------|
D|---2----------0--------------------2------------2------------2-----|
A|---2-------------------------------0------------2--------------2---|
E|---0--------------------------------------------0------------------|
     Em         D                    Am           Em



VERSE (2x) "Kozeli helyeken..."                  
e|----------0--------------2------3p2-------------0------------------0---------|
B|--------0---0---0----------3--------3---------1---3-1-0----------0---3/5-3---|
G|--------------0---0----------2--------2--------------------------------------|
D|---------------------0---------------------2---------------------------------|
A|----2------------------------------------0-------------------2---------------|
E|--0--------------------------------------------------------0-----------------|
    Em                 D                   Am                Em


              "Kibelezett kobanyak uregeben..."
e|-----------0-------0------2------3p2-------0--0-------2----3p2-------|
B|---------1---1---1----------3--------3-----0----0-----3--------3-----|
G|-------0-------0--------------2--------2---0------0---2----------2---|
D|----------------------0--------------------2----------0--------------|
A|--0-3--------------------------------------2-------------------------|
E|-------------------------------------------0-------------------------|
      C                 D                    Em         D            


e|--0--0-------2--2------2h3p2-------|
B|--0----0-----3----3----------3-----|
G|--0------0---2------2----------2---|
D|--2----------0---------------------|
A|--2--------------------------------|
E|--0--------------------------------|
    Em         D
 


CHORUS "Itt ul az ido..."
e|------------------------3------3p2-------------0------------------0---------|
B|--------1-----------------2--------2---------1---3-1-0----------0---3/5-3---|
G|------0---------------------3--------3--------------------------------------|
D|----2------2---2----0---------------------2---------------------------------|
A|--3----------3---3----------------------0-------------------2---------------|
E|----------------------------------------------------------0-----------------|
    C                 D                   Am                Em


       "Akkor is megyek..." 
e|--------------------------3------3p2-------------0------------------0---------|
B|----------1-----------------2--------2---------1---3-1-0----------0---3/5-3---|
G|--------0---------------------3--------3--------------------------------------|
D|------2------2---2----0---------------------2---------------------------------|
A|--0-3----------3---3----------------------0-------------------2---------------|
E|------------------------------------------------------------0-----------------|
      C                 D                   Am                Em


                   "...és szaritja a szel..."
e|------------------------3------3p2-------------0------------------0---------|
B|--------1-----------------2--------2---------1---3-1-0----------0---3/5-3---|
G|------0---------------------3--------3--------------------------------------|
D|----2------2---2----0---------------------2---------------------------------|
A|--3----------3---3----------------------0-------------------2---------------|
E|----------------------------------------------------------0-----------------|
    C                 D                   Am                Em


  "Porbol lettem...."                       "Felek, hogy a kodbe veszek"
e|--------------------------3------3p2-------------0----------0----------|
B|----------1-----------------2--------2---------1---3-1-0----0----------|
G|--------0---------------------3--------3--------------------0----------|
D|------2------2---2----0---------------------2---------------2----------|
A|--0-3----------3---3----------------------0-----------------2----------|
E|------------------------------------------------------------0----------|
      C                 D                   Am                Em


  
VERSE 
CHORUS



Guitar Solo - Acoustic (2:44-2:55)
e|--------------------------------------------------------------------------------------|
B|--------------------------------------------------------------------------------------|
G|--------------------------------------------------------------------------------------|
D|------------------------------7-9--7------------------7----9-7h9p7----7~--9-10-7-9~---|
A|-----10-9----7~--9-10-9~---10---------10-9-7~--7-9-10---10---------10-----------------|
E|---0------10--------------------------------------------------------------------------|


Guitar Solo - Electric (2:56-3:11)
e|---------------15-17---17^r[19]r17^[19]--17^[19]-17^[19]-17p15-17~---|
B|-----------17--------------------------------------------------------|
G|---------------------------------------------------------------------|
D|--x//----------------------------------------------------------------|
A|--x//----------------------------------------------------------------|
E|---------------------------------------------------------------------|


e|---22^[24]-22^[24]--22^(24)-22-19h22-19~-----------------------------------------|
B|--------------------------------------------------------------------12/13-10~~---|
G|---------------------------------------------------14-------/12-14---------------|
D|------------------------------------------14-16-17----17~------------------------|
A|---------------------------------------------------------------------------------|
E|---------------------------------------------------------------------------------|


e|---------------------------------------------|
B|---------------------------------------------|
G|----/14-12h14p12-12p11-----------------------|
D|-----------------------12-12/14~~---x//------|
A|------------------------------------x//------|
E|---------------------------------------------|
                             


CHORUS + distortion guitar
 
    "Itt ul az ido..." 
e|-----------------------------------------------------------|
B|-----------------------------------------------------------|
G|---5------------7-----------2------------------------------|
D|---5------------7-----------2-------------2----------------|
A|---3------------5-----------0-------------2----------------|
E|------------------------------------------0----------------|               


    "Akkor is megyek..." 
e|-----------------------------------------------------------|
B|-----------------------------------------------------------|
G|---5------------7-----------2------------------------------|
D|---5------------7-----------2-------------2----------------|
A|---3------------5-----------0-------------2----------------|
E|------------------------------------------0----------------|  


           "...és szarítja a szel..."
e|-----------------------------------------------------------|
B|-----------------------------------------------------------|
G|---5------------7-----------2------------------------------|
D|---5------------7-----------2-------------2----------------|
A|---3------------5-----------0-------------2----------------|
E|------------------------------------------0----------------|  


    "Porbol lettem..."        "Felek, hogy a kodbe veszek" 
e|-----------------------------------------------------------|
B|-----------------------------------------------------------|
G|---5------------7------------2-----------------------------|
D|---5------------7------------2------------2----------------|
A|---3------------5------------0------------2----------------|
E|------------------------------------------0----------------|  



INTRO + distortion guitar

e|-----------------------------------------------------------|
B|-----------------------------------------------------------|
G|---9----7-------2-------------------9----7-------2---------|
D|---9----7-------2----2--------------9----7-------2----2----|
A|---7----5-------0----2--------------7----5-------0----2----|
E|---------------------0------0-0-0-0-------------------0----|
                              * * * *   

OUTRO
e|--------------------(12)--|
B|---(12)--(7)--------------|
G|--------------(7)---------|
D|--------------------------|
A|--------------------------|
E|--------------------------|

comments
We did not receive enough feedback on this tab! Please rate:
print report bad tab
1 2 3 4 5
I want to post or [tab]
guest
You may want to rate the tab now too:
select rating
Please do not post tabs as comments. Select "correction" instead!