Oops, an error
Loading. Please wait.

Alien She bass

version 2
version 2

Whole song

1,319 views 3 this week
1 commentread comment
1 2 3 4 5
x 4
add to favorites
×
Save as Personal and add changes to this tab that will be seen only by you. Learn more ›
×
You can save this tab as Personal to edit and correct it or add notes. All changes will be seen only by you. Learn more »
launch autoscroll
font size
0
reset
guitar tuner
edit
Autoscroll
slow
fast
+/-
esc
set tempo
stop
This is pretty much how I think it goes.

G | -------------------------------------------------------------|
D | -------------------------------------------------------------| (repeat)
A | 10-5-5-5-5-5-0-3-----------5-0-0-0-0-0-0-5-0-8---------------|
E | ----------------3-3-3-3-3-3----------------------------------|

G | -------------------------------------------------------------|
D | -------------------------------------------------------------| (repeat)
A | -------------------------------------------------------------|
E | 0-4-5-6-6/7-7-7-6/7-7-7--------------------------------------|
Suggest correction
Creating personal tab
Creating personal tab
You can edit any tab online and save it as your Personal.

You can edit, replace or remove any tab part or add personal notes – all changes will be seen only by you.

Personal tabs can be accessed anytime from any device, even offline.
Learn more »
comments
print report bad tab
1 comment total.
+1 reply
whatarainylady 30 Jan 05, 2006 02:49 PM

I submitted this tab and I forgot to say at the end they switch it up like:

G | -----------------------------------------------
D | -----------------------------------------------
A | 5-5-5-5-5-5-7-7-7-7-7-7-5-5-5-5-5-5-7-7-7-7-7-7
E | -----------------------------------------------

G | -----------------------------------------------
D | -----------------------------------------------
A | 10-5-5-5-5-5-5-10-5-5-5-5-5-5-10-5-5-5-5-5-5-10
E | -----------------------------------------------

Also, for a shortcut, instead of playing 10 on the A string you can use 5 on the D.

guest
Wanna post a correction for this tab? Suggest correction